ISO-10303-21;
HEADER;
FILE_DESCRIPTION (( 'STEP AP203' ),
    '1' );
FILE_NAME ('334887.step',
    '2021-11-15T07:41:52',
    ( '' ),
    ( '' ),
    'SwSTEP 2.0',
    'SolidWorks 2019',
    '' );
FILE_SCHEMA (( 'CONFIG_CONTROL_DESIGN' ));
ENDSEC;

DATA;
#1 = APPROVAL_STATUS ( 'not_yet_approved' ) ;
#2 = ADVANCED_FACE ( 'NONE', ( #114 ), #136, .T. ) ;
#3 = CC_DESIGN_DATE_AND_TIME_ASSIGNMENT ( #150, #171, ( #213 ) ) ;
#4 = CC_DESIGN_APPROVAL ( #21, ( #25 ) ) ;
#5 = CARTESIAN_POINT ( 'NONE',  ( 5.586370142149012580E-15, -1.734723475976806601E-16, 1.599999999999999645 ) ) ;
#6 = ORIENTED_EDGE ( 'NONE', *, *, #62, .T. ) ;
#7 = DIRECTION ( 'NONE',  ( 3.491481338843133355E-15, -0.0000000000000000000, 1.000000000000000000 ) ) ;
#8 = DIRECTION ( 'NONE',  ( 3.491481338843133355E-15, -0.0000000000000000000, 1.000000000000000000 ) ) ;
#9 = CARTESIAN_POINT ( 'NONE',  ( 2.000000000000027978, 0.0000000000000000000, 8.021188827663589649 ) ) ;
#10 = EDGE_LOOP ( 'NONE', ( #139 ) ) ;
#11 = CARTESIAN_POINT ( 'NONE',  ( 1.326762908760390675E-13, -8.377713426430119900E-31, 38.00000000000000711 ) ) ;
#12 = CARTESIAN_POINT ( 'NONE',  ( 5.586370142149011002E-15, 0.0000000000000000000, 1.599999999999999201 ) ) ;
#13 = DIRECTION ( 'NONE',  ( -4.275831445896958607E-31, -1.000000000000000000, -1.224646799147353207E-16 ) ) ;
#14 = CARTESIAN_POINT ( 'NONE',  ( 0.0000000000000000000, 0.0000000000000000000, 0.0000000000000000000 ) ) ;
#15 = CONICAL_SURFACE ( 'NONE', #59, 4.000000000000000000, 0.2617993877991427465 ) ;
#16 = PERSON_AND_ORGANIZATION_ROLE ( 'design_owner' ) ;
#17 = ADVANCED_FACE ( 'NONE', ( #80, #214 ), #196, .F. ) ;
#18 = PERSON_AND_ORGANIZATION ( #22, #209 ) ;
#19 = AXIS2_PLACEMENT_3D ( 'NONE', #87, #51, #164 ) ;
#20 = SHAPE_DEFINITION_REPRESENTATION ( #147, #99 ) ;
#21 = APPROVAL ( #130, 'UNSPECIFIED' ) ;
#22 = PERSON ( 'UNSPECIFIED', 'UNSPECIFIED', 'UNSPECIFIED', ('UNSPECIFIED'), ('UNSPECIFIED'), ('UNSPECIFIED') ) ;
#23 = FACE_OUTER_BOUND ( 'NONE', #222, .T. ) ;
#24 = ORIENTED_EDGE ( 'NONE', *, *, #75, .T. ) ;
#25 = PRODUCT_DEFINITION ( 'UNKNOWN', '', #156, #134 ) ;
#26 = DIRECTION ( 'NONE',  ( 3.491481338843133355E-15, -0.0000000000000000000, 1.000000000000000000 ) ) ;
#27 = EDGE_LOOP ( 'NONE', ( #160 ) ) ;
#28 = ADVANCED_FACE ( 'NONE', ( #41, #23 ), #115, .T. ) ;
#29 = DIRECTION ( 'NONE',  ( -3.491481338843133355E-15, 1.224646799147353207E-16, -1.000000000000000000 ) ) ;
#30 = EDGE_LOOP ( 'NONE', ( #159 ) ) ;
#31 = CARTESIAN_POINT ( 'NONE',  ( 0.0000000000000000000, 0.0000000000000000000, 0.0000000000000000000 ) ) ;
#32 = CIRCLE ( 'NONE', #241, 0.3500000000000000333 ) ;
#33 = CARTESIAN_POINT ( 'NONE',  ( -4.275831445896957731E-31, 1.499759782661857608E-32, -1.224646799147353207E-16 ) ) ;
#34 =( NAMED_UNIT ( * ) SI_UNIT ( $, .STERADIAN. ) SOLID_ANGLE_UNIT ( ) );
#35 = DIRECTION ( 'NONE',  ( 1.000000000000000000, 0.0000000000000000000, 0.0000000000000000000 ) ) ;
#36 = ADVANCED_FACE ( 'NONE', ( #105, #101 ), #182, .T. ) ;
#37 = DATE_AND_TIME ( #52, #242 ) ;
#38 = CC_DESIGN_SECURITY_CLASSIFICATION ( #213, ( #156 ) ) ;
#39 = DATE_AND_TIME ( #53, #230 ) ;
#40 = AXIS2_PLACEMENT_3D ( 'NONE', #121, #234, #217 ) ;
#41 = FACE_BOUND ( 'NONE', #163, .T. ) ;
#42 = EDGE_LOOP ( 'NONE', ( #203 ) ) ;
#43 = EDGE_LOOP ( 'NONE', ( #64 ) ) ;
#44 = CARTESIAN_POINT ( 'NONE',  ( 5.586370142149011002E-15, 0.0000000000000000000, 1.599999999999999201 ) ) ;
#45 = DIRECTION ( 'NONE',  ( -3.491481338843133355E-15, 1.224646799147353207E-16, -1.000000000000000000 ) ) ;
#46 = CC_DESIGN_APPROVAL ( #57, ( #156 ) ) ;
#47 = CIRCLE ( 'NONE', #19, 1.999999999999999556 ) ;
#48 = CARTESIAN_POINT ( 'NONE',  ( 1.326762908760390675E-13, 1.599999999999997202, 38.00000000000000711 ) ) ;
#49 = CARTESIAN_POINT ( 'NONE',  ( 1.312796983405018394E-13, 1.999999999999994893, 37.60000000000000853 ) ) ;
#50 = EDGE_LOOP ( 'NONE', ( #24 ) ) ;
#51 = DIRECTION ( 'NONE',  ( -3.491481338843133355E-15, 1.224646799147353207E-16, -1.000000000000000000 ) ) ;
#52 = CALENDAR_DATE ( 2021, 15, 11 ) ;
#53 = CALENDAR_DATE ( 2021, 15, 11 ) ;
#54 = APPROVAL ( #231, 'UNSPECIFIED' ) ;
#55 = DATE_AND_TIME ( #76, #192 ) ;
#56 = COORDINATED_UNIVERSAL_TIME_OFFSET ( 1, 0, .AHEAD. ) ;
#57 = APPROVAL ( #1, 'UNSPECIFIED' ) ;
#58 = APPROVAL_ROLE ( '' ) ;
#59 = AXIS2_PLACEMENT_3D ( 'NONE', #149, #226, #198 ) ;
#60 = APPROVAL_PERSON_ORGANIZATION ( #91, #21, #169 ) ;
#61 = ORIENTED_EDGE ( 'NONE', *, *, #138, .T. ) ;
#62 = EDGE_CURVE ( 'NONE', #166, #166, #148, .T. ) ;
#63 = DIRECTION ( 'NONE',  ( 3.491481338843133355E-15, -1.224646799147353207E-16, 1.000000000000000000 ) ) ;
#64 = ORIENTED_EDGE ( 'NONE', *, *, #233, .T. ) ;
#65 = EDGE_CURVE ( 'NONE', #104, #104, #152, .T. ) ;
#66 = CARTESIAN_POINT ( 'NONE',  ( 5.586370142149011791E-15, 0.0000000000000000000, 1.599999999999999423 ) ) ;
#67 = DIRECTION ( 'NONE',  ( 1.000000000000000000, 0.0000000000000000000, -3.491481338843133355E-15 ) ) ;
#68 = DIRECTION ( 'NONE',  ( 1.000000000000000000, 0.0000000000000000000, -3.717264591378872007E-15 ) ) ;
#69 = VERTEX_POINT ( 'NONE', #144 ) ;
#70 = ORIENTED_EDGE ( 'NONE', *, *, #138, .F. ) ;
#71 = DIRECTION ( 'NONE',  ( -3.491481338843133355E-15, 1.224646799147353207E-16, -1.000000000000000000 ) ) ;
#72 = PRODUCT ( '334887', '334887', '', ( #93 ) ) ;
#73 = DIRECTION ( 'NONE',  ( 4.275831445896958607E-31, 1.000000000000000000, 1.224646799147353207E-16 ) ) ;
#74 = FACE_OUTER_BOUND ( 'NONE', #200, .T. ) ;
#75 = EDGE_CURVE ( 'NONE', #206, #206, #120, .T. ) ;
#76 = CALENDAR_DATE ( 2021, 15, 11 ) ;
#77 = DATE_AND_TIME ( #133, #188 ) ;
#78 = CC_DESIGN_APPROVAL ( #54, ( #213 ) ) ;
#79 = ORIENTED_EDGE ( 'NONE', *, *, #238, .F. ) ;
#80 = FACE_OUTER_BOUND ( 'NONE', #27, .T. ) ;
#81 = DIRECTION ( 'NONE',  ( 0.0000000000000000000, 1.000000000000000000, 0.0000000000000000000 ) ) ;
#82 = DIRECTION ( 'NONE',  ( 1.000000000000000000, 0.0000000000000000000, -3.111437878457077522E-15 ) ) ;
#83 = DIRECTION ( 'NONE',  ( 4.275831445896958607E-31, 1.000000000000000000, 1.224646799147353207E-16 ) ) ;
#84 = DIRECTION ( 'NONE',  ( 3.491481338843133355E-15, -0.0000000000000000000, 1.000000000000000000 ) ) ;
#85 = CARTESIAN_POINT ( 'NONE',  ( 0.3500000000000056399, 0.0000000000000000000, 1.599999999999997868 ) ) ;
#86 = MANIFOLD_SOLID_BREP ( 'Corps-Déplacer/Copier1[2]', #180 ) ;
#87 = CARTESIAN_POINT ( 'NONE',  ( 1.312796983405018394E-13, -4.604671964794048513E-15, 37.60000000000000853 ) ) ;
#88 = APPLICATION_CONTEXT ( 'configuration controlled 3d designs of mechanical parts and assemblies' ) ;
#89 = PERSON_AND_ORGANIZATION ( #22, #209 ) ;
#90 = APPROVAL_PERSON_ORGANIZATION ( #155, #54, #58 ) ;
#91 = PERSON_AND_ORGANIZATION ( #22, #209 ) ;
#92 = PERSON_AND_ORGANIZATION_ROLE ( 'design_supplier' ) ;
#93 = MECHANICAL_CONTEXT ( 'NONE', #232, 'mechanical' ) ;
#94 = PERSON_AND_ORGANIZATION ( #22, #209 ) ;
#95 = CC_DESIGN_PERSON_AND_ORGANIZATION_ASSIGNMENT ( #89, #16, ( #72 ) ) ;
#96 = AXIS2_PLACEMENT_3D ( 'NONE', #31, #29, #186 ) ;
#97 = UNCERTAINTY_MEASURE_WITH_UNIT (LENGTH_MEASURE( 1.000000000000000082E-05 ), #106, 'distance_accuracy_value', 'NONE');
#98 = CLOSED_SHELL ( 'NONE', ( #220, #28, #168, #17, #211, #185 ) ) ;
#99 = ADVANCED_BREP_SHAPE_REPRESENTATION ( '334887', ( #173, #86, #178 ), #103 ) ;
#100 = DIRECTION ( 'NONE',  ( 1.000000000000000000, 0.0000000000000000000, -3.717264591378872007E-15 ) ) ;
#101 = FACE_OUTER_BOUND ( 'NONE', #30, .T. ) ;
#102 = EDGE_LOOP ( 'NONE', ( #117 ) ) ;
#103 =( GEOMETRIC_REPRESENTATION_CONTEXT ( 3 ) GLOBAL_UNCERTAINTY_ASSIGNED_CONTEXT ( ( #97 ) ) GLOBAL_UNIT_ASSIGNED_CONTEXT ( ( #106, #146, #34 ) ) REPRESENTATION_CONTEXT ( 'NONE', 'WORKASPACE' ) );
#104 = VERTEX_POINT ( 'NONE', #48 ) ;
#105 = FACE_OUTER_BOUND ( 'NONE', #43, .T. ) ;
#106 =( LENGTH_UNIT ( ) NAMED_UNIT ( * ) SI_UNIT ( .MILLI., .METRE. ) );
#107 = FACE_BOUND ( 'NONE', #125, .T. ) ;
#108 = APPLICATION_PROTOCOL_DEFINITION ( 'international standard', 'config_control_design', 1994, #88 ) ;
#109 = AXIS2_PLACEMENT_3D ( 'NONE', #218, #45, #157 ) ;
#110 = DATE_TIME_ROLE ( 'creation_date' ) ;
#111 = CALENDAR_DATE ( 2021, 15, 11 ) ;
#112 = COORDINATED_UNIVERSAL_TIME_OFFSET ( 1, 0, .AHEAD. ) ;
#113 = APPROVAL_DATE_TIME ( #77, #54 ) ;
#114 = FACE_OUTER_BOUND ( 'NONE', #174, .T. ) ;
#115 = CONICAL_SURFACE ( 'NONE', #109, 1.999999999999999556, 0.7853981633974485010 ) ;
#116 = DIRECTION ( 'NONE',  ( -4.275831445896958607E-31, -1.000000000000000000, -1.224646799147353207E-16 ) ) ;
#117 = ORIENTED_EDGE ( 'NONE', *, *, #75, .F. ) ;
#118 = DIRECTION ( 'NONE',  ( -3.491481338843133355E-15, 1.224646799147353207E-16, -1.000000000000000000 ) ) ;
#119 = CYLINDRICAL_SURFACE ( 'NONE', #96, 1.999999999999999556 ) ;
#120 = CIRCLE ( 'NONE', #40, 1.999999999999999556 ) ;
#121 = CARTESIAN_POINT ( 'NONE',  ( 2.800583110712447257E-14, 0.0000000000000000000, 8.021188827663596754 ) ) ;
#122 = VERTEX_POINT ( 'NONE', #49 ) ;
#123 = CC_DESIGN_PERSON_AND_ORGANIZATION_ASSIGNMENT ( #227, #229, ( #25 ) ) ;
#124 = CARTESIAN_POINT ( 'NONE',  ( 5.586370142149012580E-15, -1.734723475976806601E-16, 1.599999999999999645 ) ) ;
#125 = EDGE_LOOP ( 'NONE', ( #61 ) ) ;
#126 = APPLICATION_PROTOCOL_DEFINITION ( 'international standard', 'config_control_design', 1994, #232 ) ;
#127 = DIRECTION ( 'NONE',  ( -3.491481338843133355E-15, 1.224646799147353207E-16, -1.000000000000000000 ) ) ;
#128 = CC_DESIGN_DATE_AND_TIME_ASSIGNMENT ( #39, #110, ( #25 ) ) ;
#129 = PERSON_AND_ORGANIZATION_ROLE ( 'creator' ) ;
#130 = APPROVAL_STATUS ( 'not_yet_approved' ) ;
#131 = COORDINATED_UNIVERSAL_TIME_OFFSET ( 1, 0, .AHEAD. ) ;
#132 = AXIS2_PLACEMENT_3D ( 'NONE', #224, #84, #225 ) ;
#133 = CALENDAR_DATE ( 2021, 15, 11 ) ;
#134 = DESIGN_CONTEXT ( 'detailed design', #88, 'design' ) ;
#135 = AXIS2_PLACEMENT_3D ( 'NONE', #176, #7, #140 ) ;
#136 = PLANE ( 'NONE',  #153 ) ;
#137 = EDGE_LOOP ( 'NONE', ( #70 ) ) ;
#138 = EDGE_CURVE ( 'NONE', #69, #69, #184, .T. ) ;
#139 = ORIENTED_EDGE ( 'NONE', *, *, #238, .T. ) ;
#140 = DIRECTION ( 'NONE',  ( 1.000000000000000000, 0.0000000000000000000, -3.491481338843133750E-15 ) ) ;
#141 = EDGE_LOOP ( 'NONE', ( #175 ) ) ;
#142 = FACE_OUTER_BOUND ( 'NONE', #42, .T. ) ;
#143 = APPROVAL_PERSON_ORGANIZATION ( #167, #57, #210 ) ;
#144 = CARTESIAN_POINT ( 'NONE',  ( 0.4181483474218674612, 0.0000000000000000000, 2.117638090205026913 ) ) ;
#145 = DIRECTION ( 'NONE',  ( 3.491481338843133355E-15, -1.224646799147353207E-16, 1.000000000000000000 ) ) ;
#146 =( NAMED_UNIT ( * ) PLANE_ANGLE_UNIT ( ) SI_UNIT ( $, .RADIAN. ) );
#147 = PRODUCT_DEFINITION_SHAPE ( 'NONE', 'NONE',  #25 ) ;
#148 = CIRCLE ( 'NONE', #165, 0.3500000000000000333 ) ;
#149 = CARTESIAN_POINT ( 'NONE',  ( 5.406660260760753132E-14, 0.0000000000000000000, 15.48529044280155098 ) ) ;
#150 = DATE_AND_TIME ( #111, #199 ) ;
#151 = ADVANCED_FACE ( 'NONE', ( #236 ), #223, .T. ) ;
#152 = CIRCLE ( 'NONE', #205, 1.600000000000001865 ) ;
#153 = AXIS2_PLACEMENT_3D ( 'NONE', #5, #63, #116 ) ;
#154 = AXIS2_PLACEMENT_3D ( 'NONE', #66, #26, #67 ) ;
#155 = PERSON_AND_ORGANIZATION ( #22, #209 ) ;
#156 = PRODUCT_DEFINITION_FORMATION_WITH_SPECIFIED_SOURCE ( 'ANY', '', #72, .NOT_KNOWN. ) ;
#157 = DIRECTION ( 'NONE',  ( 0.0000000000000000000, 1.000000000000000000, 0.0000000000000000000 ) ) ;
#158 = CARTESIAN_POINT ( 'NONE',  ( 1.326762908760390675E-13, -4.653657836759942730E-15, 38.00000000000000711 ) ) ;
#159 = ORIENTED_EDGE ( 'NONE', *, *, #62, .F. ) ;
#160 = ORIENTED_EDGE ( 'NONE', *, *, #202, .T. ) ;
#161 = PLANE ( 'NONE',  #235 ) ;
#162 = PRODUCT_RELATED_PRODUCT_CATEGORY ( 'detail', '', ( #72 ) ) ;
#163 = EDGE_LOOP ( 'NONE', ( #197 ) ) ;
#164 = DIRECTION ( 'NONE',  ( 0.0000000000000000000, 1.000000000000000000, 0.0000000000000000000 ) ) ;
#165 = AXIS2_PLACEMENT_3D ( 'NONE', #44, #215, #100 ) ;
#166 = VERTEX_POINT ( 'NONE', #239 ) ;
#167 = PERSON_AND_ORGANIZATION ( #22, #209 ) ;
#168 = ADVANCED_FACE ( 'NONE', ( #142 ), #161, .F. ) ;
#169 = APPROVAL_ROLE ( '' ) ;
#170 = PERSON_AND_ORGANIZATION_ROLE ( 'classification_officer' ) ;
#171 = DATE_TIME_ROLE ( 'classification_date' ) ;
#172 = CIRCLE ( 'NONE', #132, 0.3500000000000000333 ) ;
#173 = MANIFOLD_SOLID_BREP ( 'Corps-Déplacer/Copier1[1]', #98 ) ;
#174 = EDGE_LOOP ( 'NONE', ( #6 ) ) ;
#175 = ORIENTED_EDGE ( 'NONE', *, *, #233, .F. ) ;
#176 = CARTESIAN_POINT ( 'NONE',  ( 0.0000000000000000000, 0.0000000000000000000, 0.0000000000000000000 ) ) ;
#177 = AXIS2_PLACEMENT_3D ( 'NONE', #33, #127, #83 ) ;
#178 = AXIS2_PLACEMENT_3D ( 'NONE', #14, #243, #35 ) ;
#179 = CARTESIAN_POINT ( 'NONE',  ( 7.393693874374268172E-15, 0.0000000000000000000, 2.117638090205028245 ) ) ;
#180 = CLOSED_SHELL ( 'NONE', ( #2, #36, #151 ) ) ;
#181 = FACE_OUTER_BOUND ( 'NONE', #102, .T. ) ;
#182 = CYLINDRICAL_SURFACE ( 'NONE', #135, 0.3500000000000000333 ) ;
#183 = DIRECTION ( 'NONE',  ( 3.491481338843133355E-15, -0.0000000000000000000, 1.000000000000000000 ) ) ;
#184 = CIRCLE ( 'NONE', #216, 0.4181483474218600782 ) ;
#185 = ADVANCED_FACE ( 'NONE', ( #74 ), #204, .F. ) ;
#186 = DIRECTION ( 'NONE',  ( 4.275831445896958607E-31, 1.000000000000000000, 1.224646799147353207E-16 ) ) ;
#187 = COORDINATED_UNIVERSAL_TIME_OFFSET ( 1, 0, .AHEAD. ) ;
#188 = LOCAL_TIME ( 8, 41, 52.00000000000000000, #56 ) ;
#189 = COORDINATED_UNIVERSAL_TIME_OFFSET ( 1, 0, .AHEAD. ) ;
#190 = CC_DESIGN_PERSON_AND_ORGANIZATION_ASSIGNMENT ( #94, #170, ( #213 ) ) ;
#191 = APPROVAL_DATE_TIME ( #55, #57 ) ;
#192 = LOCAL_TIME ( 8, 41, 52.00000000000000000, #112 ) ;
#193 = SECURITY_CLASSIFICATION_LEVEL ( 'unclassified' ) ;
#194 = ORIENTED_EDGE ( 'NONE', *, *, #202, .F. ) ;
#195 = CC_DESIGN_PERSON_AND_ORGANIZATION_ASSIGNMENT ( #18, #129, ( #156 ) ) ;
#196 = TOROIDAL_SURFACE ( 'NONE', #154, 2.350000000000000089, 2.000000000000000000 ) ;
#197 = ORIENTED_EDGE ( 'NONE', *, *, #65, .T. ) ;
#198 = DIRECTION ( 'NONE',  ( 1.000000000000000000, 0.0000000000000000000, -3.469446951953614189E-15 ) ) ;
#199 = LOCAL_TIME ( 8, 41, 52.00000000000000000, #131 ) ;
#200 = EDGE_LOOP ( 'NONE', ( #194 ) ) ;
#201 = CARTESIAN_POINT ( 'NONE',  ( 0.3500000000000000333, 0.0000000000000000000, -1.711877188254038056E-15 ) ) ;
#202 = EDGE_CURVE ( 'NONE', #221, #221, #32, .T. ) ;
#203 = ORIENTED_EDGE ( 'NONE', *, *, #65, .F. ) ;
#204 = PLANE ( 'NONE',  #212 ) ;
#205 = AXIS2_PLACEMENT_3D ( 'NONE', #158, #118, #81 ) ;
#206 = VERTEX_POINT ( 'NONE', #9 ) ;
#207 = CC_DESIGN_PERSON_AND_ORGANIZATION_ASSIGNMENT ( #228, #92, ( #156 ) ) ;
#208 = APPROVAL_DATE_TIME ( #37, #21 ) ;
#209 = ORGANIZATION ( 'UNSPECIFIED', 'UNSPECIFIED', '' ) ;
#210 = APPROVAL_ROLE ( '' ) ;
#211 = ADVANCED_FACE ( 'NONE', ( #181, #107 ), #15, .T. ) ;
#212 = AXIS2_PLACEMENT_3D ( 'NONE', #124, #145, #13 ) ;
#213 = SECURITY_CLASSIFICATION ( '', '', #193 ) ;
#214 = FACE_OUTER_BOUND ( 'NONE', #137, .T. ) ;
#215 = DIRECTION ( 'NONE',  ( 3.491481338843133355E-15, -0.0000000000000000000, 1.000000000000000000 ) ) ;
#216 = AXIS2_PLACEMENT_3D ( 'NONE', #179, #8, #82 ) ;
#217 = DIRECTION ( 'NONE',  ( 1.000000000000000000, 0.0000000000000000000, -3.469446951953614978E-15 ) ) ;
#218 = CARTESIAN_POINT ( 'NONE',  ( 1.312796983405018394E-13, -4.604671964794048513E-15, 37.60000000000000853 ) ) ;
#219 = FACE_OUTER_BOUND ( 'NONE', #50, .T. ) ;
#220 = ADVANCED_FACE ( 'NONE', ( #240, #219 ), #119, .T. ) ;
#221 = VERTEX_POINT ( 'NONE', #85 ) ;
#222 = EDGE_LOOP ( 'NONE', ( #79 ) ) ;
#223 = PLANE ( 'NONE',  #177 ) ;
#224 = CARTESIAN_POINT ( 'NONE',  ( -1.710332578358783092E-30, 0.0000000000000000000, -4.898587196589412829E-16 ) ) ;
#225 = DIRECTION ( 'NONE',  ( 1.000000000000000000, 0.0000000000000000000, -3.491481338843133750E-15 ) ) ;
#226 = DIRECTION ( 'NONE',  ( 3.491481338843133355E-15, -0.0000000000000000000, 1.000000000000000000 ) ) ;
#227 = PERSON_AND_ORGANIZATION ( #22, #209 ) ;
#228 = PERSON_AND_ORGANIZATION ( #22, #209 ) ;
#229 = PERSON_AND_ORGANIZATION_ROLE ( 'creator' ) ;
#230 = LOCAL_TIME ( 8, 41, 52.00000000000000000, #189 ) ;
#231 = APPROVAL_STATUS ( 'not_yet_approved' ) ;
#232 = APPLICATION_CONTEXT ( 'configuration controlled 3d designs of mechanical parts and assemblies' ) ;
#233 = EDGE_CURVE ( 'NONE', #237, #237, #172, .T. ) ;
#234 = DIRECTION ( 'NONE',  ( 3.491481338843133355E-15, -0.0000000000000000000, 1.000000000000000000 ) ) ;
#235 = AXIS2_PLACEMENT_3D ( 'NONE', #11, #71, #73 ) ;
#236 = FACE_OUTER_BOUND ( 'NONE', #141, .T. ) ;
#237 = VERTEX_POINT ( 'NONE', #201 ) ;
#238 = EDGE_CURVE ( 'NONE', #122, #122, #47, .T. ) ;
#239 = CARTESIAN_POINT ( 'NONE',  ( 0.3500000000000056399, 0.0000000000000000000, 1.599999999999997868 ) ) ;
#240 = FACE_OUTER_BOUND ( 'NONE', #10, .T. ) ;
#241 = AXIS2_PLACEMENT_3D ( 'NONE', #12, #183, #68 ) ;
#242 = LOCAL_TIME ( 8, 41, 52.00000000000000000, #187 ) ;
#243 = DIRECTION ( 'NONE',  ( 0.0000000000000000000, 0.0000000000000000000, 1.000000000000000000 ) ) ;
ENDSEC;
END-ISO-10303-21;
