ISO-10303-21;
HEADER;
FILE_DESCRIPTION (( 'STEP AP203' ),
    '1' );
FILE_NAME ('334886.step',
    '2021-11-15T07:41:52',
    ( '' ),
    ( '' ),
    'SwSTEP 2.0',
    'SolidWorks 2019',
    '' );
FILE_SCHEMA (( 'CONFIG_CONTROL_DESIGN' ));
ENDSEC;

DATA;
#1 = PRODUCT_DEFINITION ( 'UNKNOWN', '', #174, #103 ) ;
#2 = DIRECTION ( 'NONE',  ( 1.000000000000000000, 0.0000000000000000000, -3.469446951953614189E-15 ) ) ;
#3 = CARTESIAN_POINT ( 'NONE',  ( 4.888073874380385120E-15, -1.517883041479705715E-16, 1.399999999999999467 ) ) ;
#4 = CARTESIAN_POINT ( 'NONE',  ( 2.000000000000027978, 0.0000000000000000000, 8.007791368042038727 ) ) ;
#5 = ORIENTED_EDGE ( 'NONE', *, *, #101, .F. ) ;
#6 = DIRECTION ( 'NONE',  ( 3.491481338843133355E-15, -1.224646799147353207E-16, 1.000000000000000000 ) ) ;
#7 = TOROIDAL_SURFACE ( 'NONE', #127, 2.299999999999999822, 2.000000000000000000 ) ;
#8 = DIRECTION ( 'NONE',  ( 0.0000000000000000000, 1.000000000000000000, 0.0000000000000000000 ) ) ;
#9 = CARTESIAN_POINT ( 'NONE',  ( 1.326762908760390675E-13, -4.653657836759942730E-15, 38.00000000000000711 ) ) ;
#10 = APPROVAL ( #135, 'UNSPECIFIED' ) ;
#11 = DIRECTION ( 'NONE',  ( -4.275831445896958607E-31, -1.000000000000000000, -1.224646799147353207E-16 ) ) ;
#12 = AXIS2_PLACEMENT_3D ( 'NONE', #162, #6, #123 ) ;
#13 = ORIENTED_EDGE ( 'NONE', *, *, #143, .T. ) ;
#14 = PERSON_AND_ORGANIZATION ( #87, #160 ) ;
#15 = AXIS2_PLACEMENT_3D ( 'NONE', #212, #178, #64 ) ;
#16 = PERSON_AND_ORGANIZATION_ROLE ( 'creator' ) ;
#17 = APPLICATION_PROTOCOL_DEFINITION ( 'international standard', 'config_control_design', 1994, #167 ) ;
#18 = CC_DESIGN_APPROVAL ( #47, ( #174 ) ) ;
#19 = APPROVAL_STATUS ( 'not_yet_approved' ) ;
#20 = CC_DESIGN_APPROVAL ( #206, ( #1 ) ) ;
#21 = FACE_OUTER_BOUND ( 'NONE', #210, .T. ) ;
#22 = CC_DESIGN_PERSON_AND_ORGANIZATION_ASSIGNMENT ( #115, #238, ( #231 ) ) ;
#23 = DIRECTION ( 'NONE',  ( 3.491481338843133355E-15, -0.0000000000000000000, 1.000000000000000000 ) ) ;
#24 = CARTESIAN_POINT ( 'NONE',  ( 6.695397606605640712E-15, 0.0000000000000000000, 1.917638090205028067 ) ) ;
#25 = CIRCLE ( 'NONE', #163, 0.2999999999999999334 ) ;
#26 = CARTESIAN_POINT ( 'NONE',  ( 0.2999999999999999334, 0.0000000000000000000, -1.537303121311880796E-15 ) ) ;
#27 =( NAMED_UNIT ( * ) PLANE_ANGLE_UNIT ( ) SI_UNIT ( $, .RADIAN. ) );
#28 = CARTESIAN_POINT ( 'NONE',  ( 1.326762908760390675E-13, -8.377713426430119900E-31, 38.00000000000000711 ) ) ;
#29 = CARTESIAN_POINT ( 'NONE',  ( 4.888073874380384331E-15, 0.0000000000000000000, 1.399999999999999245 ) ) ;
#30 = EDGE_CURVE ( 'NONE', #200, #200, #95, .T. ) ;
#31 = ORIENTED_EDGE ( 'NONE', *, *, #90, .T. ) ;
#32 = CYLINDRICAL_SURFACE ( 'NONE', #85, 0.2999999999999999334 ) ;
#33 = FACE_OUTER_BOUND ( 'NONE', #150, .T. ) ;
#34 = PERSON_AND_ORGANIZATION_ROLE ( 'design_supplier' ) ;
#35 = EDGE_LOOP ( 'NONE', ( #171 ) ) ;
#36 = CALENDAR_DATE ( 2021, 15, 11 ) ;
#37 = EDGE_LOOP ( 'NONE', ( #49 ) ) ;
#38 = DATE_TIME_ROLE ( 'creation_date' ) ;
#39 = PRODUCT_RELATED_PRODUCT_CATEGORY ( 'detail', '', ( #231 ) ) ;
#40 = AXIS2_PLACEMENT_3D ( 'NONE', #94, #110, #189 ) ;
#41 = CARTESIAN_POINT ( 'NONE',  ( -1.710332578358783092E-30, 0.0000000000000000000, -4.898587196589412829E-16 ) ) ;
#42 = APPLICATION_CONTEXT ( 'configuration controlled 3d designs of mechanical parts and assemblies' ) ;
#43 = CARTESIAN_POINT ( 'NONE',  ( 0.3000000000000048184, 0.0000000000000000000, 1.399999999999998135 ) ) ;
#44 = ADVANCED_FACE ( 'NONE', ( #33, #21 ), #102, .T. ) ;
#45 = FACE_BOUND ( 'NONE', #207, .T. ) ;
#46 = CLOSED_SHELL ( 'NONE', ( #44, #175, #161, #184, #134, #180 ) ) ;
#47 = APPROVAL ( #131, 'UNSPECIFIED' ) ;
#48 = DIRECTION ( 'NONE',  ( -3.491481338843133355E-15, 1.224646799147353207E-16, -1.000000000000000000 ) ) ;
#49 = ORIENTED_EDGE ( 'NONE', *, *, #143, .F. ) ;
#50 = EDGE_LOOP ( 'NONE', ( #5 ) ) ;
#51 = CARTESIAN_POINT ( 'NONE',  ( 1.312796983405018394E-13, -4.604671964794048513E-15, 37.60000000000000853 ) ) ;
#52 = CONICAL_SURFACE ( 'NONE', #82, 4.000000000000000000, 0.2617993877991428020 ) ;
#53 = CARTESIAN_POINT ( 'NONE',  ( 4.888073874380383542E-15, 0.0000000000000000000, 1.399999999999999023 ) ) ;
#54 = ORIENTED_EDGE ( 'NONE', *, *, #30, .F. ) ;
#55 = DIRECTION ( 'NONE',  ( 3.491481338843133355E-15, -0.0000000000000000000, 1.000000000000000000 ) ) ;
#56 = CALENDAR_DATE ( 2021, 15, 11 ) ;
#57 = PERSON_AND_ORGANIZATION_ROLE ( 'creator' ) ;
#58 = DIRECTION ( 'NONE',  ( 4.275831445896958607E-31, 1.000000000000000000, 1.224646799147353207E-16 ) ) ;
#59 = PLANE ( 'NONE',  #15 ) ;
#60 = APPROVAL_PERSON_ORGANIZATION ( #132, #47, #205 ) ;
#61 = VERTEX_POINT ( 'NONE', #142 ) ;
#62 =( LENGTH_UNIT ( ) NAMED_UNIT ( * ) SI_UNIT ( .MILLI., .METRE. ) );
#63 = CARTESIAN_POINT ( 'NONE',  ( 2.795905412686792544E-14, 0.0000000000000000000, 8.007791368042045832 ) ) ;
#64 = DIRECTION ( 'NONE',  ( 4.275831445896958607E-31, 1.000000000000000000, 1.224646799147353207E-16 ) ) ;
#65 = VERTEX_POINT ( 'NONE', #236 ) ;
#66 = FACE_OUTER_BOUND ( 'NONE', #35, .T. ) ;
#67 = ORIENTED_EDGE ( 'NONE', *, *, #97, .T. ) ;
#68 = CARTESIAN_POINT ( 'NONE',  ( 0.3000000000000048184, 0.0000000000000000000, 1.399999999999998135 ) ) ;
#69 = DATE_AND_TIME ( #242, #70 ) ;
#70 = LOCAL_TIME ( 8, 41, 52.00000000000000000, #224 ) ;
#71 = EDGE_LOOP ( 'NONE', ( #67 ) ) ;
#72 = DATE_TIME_ROLE ( 'classification_date' ) ;
#73 = CARTESIAN_POINT ( 'NONE',  ( 5.401982562735098104E-14, 0.0000000000000000000, 15.47189298317999828 ) ) ;
#74 = EDGE_LOOP ( 'NONE', ( #54 ) ) ;
#75 = COORDINATED_UNIVERSAL_TIME_OFFSET ( 1, 0, .AHEAD. ) ;
#76 = AXIS2_PLACEMENT_3D ( 'NONE', #41, #23, #234 ) ;
#77 = ADVANCED_FACE ( 'NONE', ( #117 ), #59, .T. ) ;
#78 = DATE_AND_TIME ( #239, #198 ) ;
#79 = CARTESIAN_POINT ( 'NONE',  ( 0.0000000000000000000, 0.0000000000000000000, 0.0000000000000000000 ) ) ;
#80 = SECURITY_CLASSIFICATION ( '', '', #91 ) ;
#81 = CARTESIAN_POINT ( 'NONE',  ( 1.312796983405018394E-13, -4.604671964794048513E-15, 37.60000000000000853 ) ) ;
#82 = AXIS2_PLACEMENT_3D ( 'NONE', #73, #146, #105 ) ;
#83 = VERTEX_POINT ( 'NONE', #68 ) ;
#84 = FACE_OUTER_BOUND ( 'NONE', #74, .T. ) ;
#85 = AXIS2_PLACEMENT_3D ( 'NONE', #202, #108, #186 ) ;
#86 = FACE_OUTER_BOUND ( 'NONE', #169, .T. ) ;
#87 = PERSON ( 'UNSPECIFIED', 'UNSPECIFIED', 'UNSPECIFIED', ('UNSPECIFIED'), ('UNSPECIFIED'), ('UNSPECIFIED') ) ;
#88 = CARTESIAN_POINT ( 'NONE',  ( 1.326762908760390675E-13, 1.599999999999997202, 38.00000000000000711 ) ) ;
#89 = MANIFOLD_SOLID_BREP ( 'Corps-Déplacer/Copier1[2]', #201 ) ;
#90 = EDGE_CURVE ( 'NONE', #61, #61, #144, .T. ) ;
#91 = SECURITY_CLASSIFICATION_LEVEL ( 'unclassified' ) ;
#92 = CIRCLE ( 'NONE', #229, 2.000000000000000000 ) ;
#93 = MANIFOLD_SOLID_BREP ( 'Corps-Déplacer/Copier1[1]', #46 ) ;
#94 = CARTESIAN_POINT ( 'NONE',  ( 0.0000000000000000000, 0.0000000000000000000, 0.0000000000000000000 ) ) ;
#95 = CIRCLE ( 'NONE', #230, 1.600000000000001865 ) ;
#96 = PERSON_AND_ORGANIZATION ( #87, #160 ) ;
#97 = EDGE_CURVE ( 'NONE', #166, #166, #203, .T. ) ;
#98 = CALENDAR_DATE ( 2021, 15, 11 ) ;
#99 = CIRCLE ( 'NONE', #122, 0.2999999999999999334 ) ;
#100 = APPLICATION_PROTOCOL_DEFINITION ( 'international standard', 'config_control_design', 1994, #42 ) ;
#101 = EDGE_CURVE ( 'NONE', #219, #219, #92, .T. ) ;
#102 = CYLINDRICAL_SURFACE ( 'NONE', #156, 2.000000000000000000 ) ;
#103 = DESIGN_CONTEXT ( 'detailed design', #167, 'design' ) ;
#104 = CC_DESIGN_PERSON_AND_ORGANIZATION_ASSIGNMENT ( #173, #34, ( #174 ) ) ;
#105 = DIRECTION ( 'NONE',  ( 1.000000000000000000, 0.0000000000000000000, -3.469446951953614189E-15 ) ) ;
#106 = FACE_OUTER_BOUND ( 'NONE', #37, .T. ) ;
#107 = AXIS2_PLACEMENT_3D ( 'NONE', #24, #179, #157 ) ;
#108 = DIRECTION ( 'NONE',  ( 3.491481338843133355E-15, -0.0000000000000000000, 1.000000000000000000 ) ) ;
#109 = PLANE ( 'NONE',  #12 ) ;
#110 = DIRECTION ( 'NONE',  ( 0.0000000000000000000, 0.0000000000000000000, 1.000000000000000000 ) ) ;
#111 = APPROVAL_DATE_TIME ( #154, #10 ) ;
#112 = CC_DESIGN_APPROVAL ( #10, ( #80 ) ) ;
#113 = EDGE_LOOP ( 'NONE', ( #145 ) ) ;
#114 = DATE_AND_TIME ( #98, #126 ) ;
#115 = PERSON_AND_ORGANIZATION ( #87, #160 ) ;
#116 = LOCAL_TIME ( 8, 41, 52.00000000000000000, #75 ) ;
#117 = FACE_OUTER_BOUND ( 'NONE', #149, .T. ) ;
#118 = CC_DESIGN_SECURITY_CLASSIFICATION ( #80, ( #174 ) ) ;
#119 = EDGE_CURVE ( 'NONE', #65, #65, #214, .T. ) ;
#120 = CARTESIAN_POINT ( 'NONE',  ( 4.888073874380383542E-15, 0.0000000000000000000, 1.399999999999999023 ) ) ;
#121 = ADVANCED_BREP_SHAPE_REPRESENTATION ( '334886', ( #93, #89, #40 ), #185 ) ;
#122 = AXIS2_PLACEMENT_3D ( 'NONE', #53, #55, #225 ) ;
#123 = DIRECTION ( 'NONE',  ( -4.275831445896958607E-31, -1.000000000000000000, -1.224646799147353207E-16 ) ) ;
#124 = PLANE ( 'NONE',  #155 ) ;
#125 = DIRECTION ( 'NONE',  ( 3.491481338843133355E-15, -1.224646799147353207E-16, 1.000000000000000000 ) ) ;
#126 = LOCAL_TIME ( 8, 41, 52.00000000000000000, #208 ) ;
#127 = AXIS2_PLACEMENT_3D ( 'NONE', #29, #182, #216 ) ;
#128 = FACE_OUTER_BOUND ( 'NONE', #226, .T. ) ;
#129 = DIRECTION ( 'NONE',  ( 0.0000000000000000000, 1.000000000000000000, 0.0000000000000000000 ) ) ;
#130 = EDGE_CURVE ( 'NONE', #83, #83, #99, .T. ) ;
#131 = APPROVAL_STATUS ( 'not_yet_approved' ) ;
#132 = PERSON_AND_ORGANIZATION ( #87, #160 ) ;
#133 = FACE_OUTER_BOUND ( 'NONE', #50, .T. ) ;
#134 = ADVANCED_FACE ( 'NONE', ( #133, #209 ), #52, .T. ) ;
#135 = APPROVAL_STATUS ( 'not_yet_approved' ) ;
#136 = CONICAL_SURFACE ( 'NONE', #233, 1.999999999999999556, 0.7853981633974485010 ) ;
#137 =( NAMED_UNIT ( * ) SI_UNIT ( $, .STERADIAN. ) SOLID_ANGLE_UNIT ( ) );
#138 = DATE_AND_TIME ( #56, #141 ) ;
#139 = UNCERTAINTY_MEASURE_WITH_UNIT (LENGTH_MEASURE( 1.000000000000000082E-05 ), #62, 'distance_accuracy_value', 'NONE');
#140 = DIRECTION ( 'NONE',  ( -3.491481338843133355E-15, 1.224646799147353207E-16, -1.000000000000000000 ) ) ;
#141 = LOCAL_TIME ( 8, 41, 52.00000000000000000, #227 ) ;
#142 = CARTESIAN_POINT ( 'NONE',  ( 0.3681483474218666396, 0.0000000000000000000, 1.917638090205026735 ) ) ;
#143 = EDGE_CURVE ( 'NONE', #148, #148, #25, .T. ) ;
#144 = CIRCLE ( 'NONE', #107, 0.3681483474218599228 ) ;
#145 = ORIENTED_EDGE ( 'NONE', *, *, #119, .F. ) ;
#146 = DIRECTION ( 'NONE',  ( 3.491481338843133355E-15, -0.0000000000000000000, 1.000000000000000000 ) ) ;
#147 = CC_DESIGN_PERSON_AND_ORGANIZATION_ASSIGNMENT ( #96, #16, ( #174 ) ) ;
#148 = VERTEX_POINT ( 'NONE', #43 ) ;
#149 = EDGE_LOOP ( 'NONE', ( #190 ) ) ;
#150 = EDGE_LOOP ( 'NONE', ( #192 ) ) ;
#151 = PERSON_AND_ORGANIZATION ( #87, #160 ) ;
#152 = ORIENTED_EDGE ( 'NONE', *, *, #130, .T. ) ;
#153 = EDGE_LOOP ( 'NONE', ( #31 ) ) ;
#154 = DATE_AND_TIME ( #36, #116 ) ;
#155 = AXIS2_PLACEMENT_3D ( 'NONE', #28, #168, #217 ) ;
#156 = AXIS2_PLACEMENT_3D ( 'NONE', #79, #195, #58 ) ;
#157 = DIRECTION ( 'NONE',  ( 1.000000000000000000, 0.0000000000000000000, -3.534017240859009068E-15 ) ) ;
#158 = CC_DESIGN_PERSON_AND_ORGANIZATION_ASSIGNMENT ( #14, #170, ( #80 ) ) ;
#159 = DIRECTION ( 'NONE',  ( 3.491481338843133355E-15, -0.0000000000000000000, 1.000000000000000000 ) ) ;
#160 = ORGANIZATION ( 'UNSPECIFIED', 'UNSPECIFIED', '' ) ;
#161 = ADVANCED_FACE ( 'NONE', ( #84 ), #124, .F. ) ;
#162 = CARTESIAN_POINT ( 'NONE',  ( 4.888073874380385120E-15, -1.517883041479705715E-16, 1.399999999999999467 ) ) ;
#163 = AXIS2_PLACEMENT_3D ( 'NONE', #120, #183, #188 ) ;
#164 = FACE_OUTER_BOUND ( 'NONE', #218, .T. ) ;
#165 = CC_DESIGN_PERSON_AND_ORGANIZATION_ASSIGNMENT ( #222, #57, ( #1 ) ) ;
#166 = VERTEX_POINT ( 'NONE', #26 ) ;
#167 = APPLICATION_CONTEXT ( 'configuration controlled 3d designs of mechanical parts and assemblies' ) ;
#168 = DIRECTION ( 'NONE',  ( -3.491481338843133355E-15, 1.224646799147353207E-16, -1.000000000000000000 ) ) ;
#169 = EDGE_LOOP ( 'NONE', ( #13 ) ) ;
#170 = PERSON_AND_ORGANIZATION_ROLE ( 'classification_officer' ) ;
#171 = ORIENTED_EDGE ( 'NONE', *, *, #130, .F. ) ;
#172 = APPROVAL_ROLE ( '' ) ;
#173 = PERSON_AND_ORGANIZATION ( #87, #160 ) ;
#174 = PRODUCT_DEFINITION_FORMATION_WITH_SPECIFIED_SOURCE ( 'ANY', '', #231, .NOT_KNOWN. ) ;
#175 = ADVANCED_FACE ( 'NONE', ( #45, #215 ), #136, .T. ) ;
#176 = APPROVAL_PERSON_ORGANIZATION ( #197, #206, #241 ) ;
#177 = ADVANCED_FACE ( 'NONE', ( #128 ), #181, .T. ) ;
#178 = DIRECTION ( 'NONE',  ( -3.491481338843133355E-15, 1.224646799147353207E-16, -1.000000000000000000 ) ) ;
#179 = DIRECTION ( 'NONE',  ( 3.491481338843133355E-15, -0.0000000000000000000, 1.000000000000000000 ) ) ;
#180 = ADVANCED_FACE ( 'NONE', ( #106 ), #109, .F. ) ;
#181 = PLANE ( 'NONE',  #191 ) ;
#182 = DIRECTION ( 'NONE',  ( 3.491481338843133355E-15, -0.0000000000000000000, 1.000000000000000000 ) ) ;
#183 = DIRECTION ( 'NONE',  ( 3.491481338843133355E-15, -0.0000000000000000000, 1.000000000000000000 ) ) ;
#184 = ADVANCED_FACE ( 'NONE', ( #86, #164 ), #7, .F. ) ;
#185 =( GEOMETRIC_REPRESENTATION_CONTEXT ( 3 ) GLOBAL_UNCERTAINTY_ASSIGNED_CONTEXT ( ( #139 ) ) GLOBAL_UNIT_ASSIGNED_CONTEXT ( ( #62, #27, #137 ) ) REPRESENTATION_CONTEXT ( 'NONE', 'WORKASPACE' ) );
#186 = DIRECTION ( 'NONE',  ( 1.000000000000000000, 0.0000000000000000000, -3.491481338843132961E-15 ) ) ;
#187 = ORIENTED_EDGE ( 'NONE', *, *, #30, .T. ) ;
#188 = DIRECTION ( 'NONE',  ( 1.000000000000000000, 0.0000000000000000000, -3.614007241618349165E-15 ) ) ;
#189 = DIRECTION ( 'NONE',  ( 1.000000000000000000, 0.0000000000000000000, 0.0000000000000000000 ) ) ;
#190 = ORIENTED_EDGE ( 'NONE', *, *, #97, .F. ) ;
#191 = AXIS2_PLACEMENT_3D ( 'NONE', #3, #125, #11 ) ;
#192 = ORIENTED_EDGE ( 'NONE', *, *, #119, .T. ) ;
#193 = SHAPE_DEFINITION_REPRESENTATION ( #213, #121 ) ;
#194 = MECHANICAL_CONTEXT ( 'NONE', #42, 'mechanical' ) ;
#195 = DIRECTION ( 'NONE',  ( -3.491481338843133355E-15, 1.224646799147353207E-16, -1.000000000000000000 ) ) ;
#196 = CC_DESIGN_DATE_AND_TIME_ASSIGNMENT ( #138, #38, ( #1 ) ) ;
#197 = PERSON_AND_ORGANIZATION ( #87, #160 ) ;
#198 = LOCAL_TIME ( 8, 41, 52.00000000000000000, #243 ) ;
#199 = AXIS2_PLACEMENT_3D ( 'NONE', #81, #140, #223 ) ;
#200 = VERTEX_POINT ( 'NONE', #88 ) ;
#201 = CLOSED_SHELL ( 'NONE', ( #177, #232, #77 ) ) ;
#202 = CARTESIAN_POINT ( 'NONE',  ( 0.0000000000000000000, 0.0000000000000000000, 0.0000000000000000000 ) ) ;
#203 = CIRCLE ( 'NONE', #76, 0.2999999999999999334 ) ;
#204 = FACE_OUTER_BOUND ( 'NONE', #71, .T. ) ;
#205 = APPROVAL_ROLE ( '' ) ;
#206 = APPROVAL ( #19, 'UNSPECIFIED' ) ;
#207 = EDGE_LOOP ( 'NONE', ( #187 ) ) ;
#208 = COORDINATED_UNIVERSAL_TIME_OFFSET ( 1, 0, .AHEAD. ) ;
#209 = FACE_BOUND ( 'NONE', #153, .T. ) ;
#210 = EDGE_LOOP ( 'NONE', ( #240 ) ) ;
#211 = APPROVAL_DATE_TIME ( #114, #47 ) ;
#212 = CARTESIAN_POINT ( 'NONE',  ( -4.275831445896957731E-31, 1.499759782661857608E-32, -1.224646799147353207E-16 ) ) ;
#213 = PRODUCT_DEFINITION_SHAPE ( 'NONE', 'NONE',  #1 ) ;
#214 = CIRCLE ( 'NONE', #199, 1.999999999999999556 ) ;
#215 = FACE_OUTER_BOUND ( 'NONE', #113, .T. ) ;
#216 = DIRECTION ( 'NONE',  ( 1.000000000000000000, 0.0000000000000000000, -3.491481338843133355E-15 ) ) ;
#217 = DIRECTION ( 'NONE',  ( 4.275831445896958607E-31, 1.000000000000000000, 1.224646799147353207E-16 ) ) ;
#218 = EDGE_LOOP ( 'NONE', ( #235 ) ) ;
#219 = VERTEX_POINT ( 'NONE', #4 ) ;
#220 = DIRECTION ( 'NONE',  ( -3.491481338843133355E-15, 1.224646799147353207E-16, -1.000000000000000000 ) ) ;
#221 = APPROVAL_PERSON_ORGANIZATION ( #151, #10, #172 ) ;
#222 = PERSON_AND_ORGANIZATION ( #87, #160 ) ;
#223 = DIRECTION ( 'NONE',  ( 0.0000000000000000000, 1.000000000000000000, 0.0000000000000000000 ) ) ;
#224 = COORDINATED_UNIVERSAL_TIME_OFFSET ( 1, 0, .AHEAD. ) ;
#225 = DIRECTION ( 'NONE',  ( 1.000000000000000000, 0.0000000000000000000, -3.614007241618349165E-15 ) ) ;
#226 = EDGE_LOOP ( 'NONE', ( #152 ) ) ;
#227 = COORDINATED_UNIVERSAL_TIME_OFFSET ( 1, 0, .AHEAD. ) ;
#228 = APPROVAL_DATE_TIME ( #69, #206 ) ;
#229 = AXIS2_PLACEMENT_3D ( 'NONE', #63, #159, #2 ) ;
#230 = AXIS2_PLACEMENT_3D ( 'NONE', #9, #220, #129 ) ;
#231 = PRODUCT ( '334886', '334886', '', ( #194 ) ) ;
#232 = ADVANCED_FACE ( 'NONE', ( #204, #66 ), #32, .T. ) ;
#233 = AXIS2_PLACEMENT_3D ( 'NONE', #51, #48, #8 ) ;
#234 = DIRECTION ( 'NONE',  ( 1.000000000000000000, 0.0000000000000000000, -3.491481338843132172E-15 ) ) ;
#235 = ORIENTED_EDGE ( 'NONE', *, *, #90, .F. ) ;
#236 = CARTESIAN_POINT ( 'NONE',  ( 1.312796983405018394E-13, 1.999999999999994893, 37.60000000000000853 ) ) ;
#237 = CC_DESIGN_DATE_AND_TIME_ASSIGNMENT ( #78, #72, ( #80 ) ) ;
#238 = PERSON_AND_ORGANIZATION_ROLE ( 'design_owner' ) ;
#239 = CALENDAR_DATE ( 2021, 15, 11 ) ;
#240 = ORIENTED_EDGE ( 'NONE', *, *, #101, .T. ) ;
#241 = APPROVAL_ROLE ( '' ) ;
#242 = CALENDAR_DATE ( 2021, 15, 11 ) ;
#243 = COORDINATED_UNIVERSAL_TIME_OFFSET ( 1, 0, .AHEAD. ) ;
ENDSEC;
END-ISO-10303-21;
