ISO-10303-21;
HEADER;
FILE_DESCRIPTION (( 'STEP AP203' ),
    '1' );
FILE_NAME ('334885.step',
    '2021-11-15T07:41:51',
    ( '' ),
    ( '' ),
    'SwSTEP 2.0',
    'SolidWorks 2019',
    '' );
FILE_SCHEMA (( 'CONFIG_CONTROL_DESIGN' ));
ENDSEC;

DATA;
#1 = DIRECTION ( 'NONE',  ( 1.000000000000000000, 0.0000000000000000000, 0.0000000000000000000 ) ) ;
#2 = APPROVAL ( #209, 'UNSPECIFIED' ) ;
#3 = APPROVAL_ROLE ( '' ) ;
#4 = FACE_OUTER_BOUND ( 'NONE', #41, .T. ) ;
#5 = MANIFOLD_SOLID_BREP ( 'Corps-Déplacer/Copier1[1]', #225 ) ;
#6 = PERSON_AND_ORGANIZATION ( #241, #195 ) ;
#7 = CC_DESIGN_DATE_AND_TIME_ASSIGNMENT ( #39, #19, ( #130 ) ) ;
#8 = APPROVAL_PERSON_ORGANIZATION ( #126, #214, #78 ) ;
#9 = ORIENTED_EDGE ( 'NONE', *, *, #94, .T. ) ;
#10 = CYLINDRICAL_SURFACE ( 'NONE', #233, 2.000000000000000000 ) ;
#11 = DESIGN_CONTEXT ( 'detailed design', #174, 'design' ) ;
#12 = VERTEX_POINT ( 'NONE', #104 ) ;
#13 = DIRECTION ( 'NONE',  ( -3.491481338843133355E-15, 1.224646799147353207E-16, -1.000000000000000000 ) ) ;
#14 = VERTEX_POINT ( 'NONE', #121 ) ;
#15 = CARTESIAN_POINT ( 'NONE',  ( 3.840629472727445902E-15, -1.192622389734054384E-16, 1.099999999999999645 ) ) ;
#16 = DIRECTION ( 'NONE',  ( -3.491481338843133355E-15, 1.224646799147353207E-16, -1.000000000000000000 ) ) ;
#17 = EDGE_LOOP ( 'NONE', ( #118 ) ) ;
#18 = PERSON_AND_ORGANIZATION ( #241, #195 ) ;
#19 = DATE_TIME_ROLE ( 'classification_date' ) ;
#20 = CC_DESIGN_PERSON_AND_ORGANIZATION_ASSIGNMENT ( #44, #115, ( #130 ) ) ;
#21 = DATE_AND_TIME ( #111, #160 ) ;
#22 = CIRCLE ( 'NONE', #184, 0.2499999999999997780 ) ;
#23 = DIRECTION ( 'NONE',  ( 0.0000000000000000000, 0.0000000000000000000, 1.000000000000000000 ) ) ;
#24 = COORDINATED_UNIVERSAL_TIME_OFFSET ( 1, 0, .AHEAD. ) ;
#25 = ORIENTED_EDGE ( 'NONE', *, *, #87, .F. ) ;
#26 = CARTESIAN_POINT ( 'NONE',  ( 3.840629472727444324E-15, 0.0000000000000000000, 1.099999999999999201 ) ) ;
#27 = DIRECTION ( 'NONE',  ( 1.000000000000000000, 0.0000000000000000000, -3.469446951953617344E-15 ) ) ;
#28 = EDGE_LOOP ( 'NONE', ( #212 ) ) ;
#29 = EDGE_CURVE ( 'NONE', #175, #175, #54, .T. ) ;
#30 = PRODUCT_DEFINITION_SHAPE ( 'NONE', 'NONE',  #142 ) ;
#31 = CYLINDRICAL_SURFACE ( 'NONE', #85, 0.2500000000000000000 ) ;
#32 = DIRECTION ( 'NONE',  ( 1.000000000000000000, 0.0000000000000000000, -3.491481338843133355E-15 ) ) ;
#33 = CC_DESIGN_APPROVAL ( #2, ( #142 ) ) ;
#34 = FACE_OUTER_BOUND ( 'NONE', #28, .T. ) ;
#35 = CARTESIAN_POINT ( 'NONE',  ( 0.0000000000000000000, 0.0000000000000000000, 0.0000000000000000000 ) ) ;
#36 = VERTEX_POINT ( 'NONE', #125 ) ;
#37 = DIRECTION ( 'NONE',  ( 0.0000000000000000000, 1.000000000000000000, 0.0000000000000000000 ) ) ;
#38 = CC_DESIGN_SECURITY_CLASSIFICATION ( #130, ( #151 ) ) ;
#39 = DATE_AND_TIME ( #202, #201 ) ;
#40 = APPROVAL_ROLE ( '' ) ;
#41 = EDGE_LOOP ( 'NONE', ( #148 ) ) ;
#42 = AXIS2_PLACEMENT_3D ( 'NONE', #76, #239, #37 ) ;
#43 = APPROVAL ( #224, 'UNSPECIFIED' ) ;
#44 = PERSON_AND_ORGANIZATION ( #241, #195 ) ;
#45 = ORIENTED_EDGE ( 'NONE', *, *, #112, .F. ) ;
#46 = CALENDAR_DATE ( 2021, 15, 11 ) ;
#47 = ORIENTED_EDGE ( 'NONE', *, *, #112, .T. ) ;
#48 = EDGE_LOOP ( 'NONE', ( #231 ) ) ;
#49 = APPROVAL_PERSON_ORGANIZATION ( #242, #43, #40 ) ;
#50 = EDGE_LOOP ( 'NONE', ( #25 ) ) ;
#51 = EDGE_CURVE ( 'NONE', #12, #12, #213, .T. ) ;
#52 = CIRCLE ( 'NONE', #136, 1.600000000000001865 ) ;
#53 = ADVANCED_FACE ( 'NONE', ( #4 ), #82, .F. ) ;
#54 = CIRCLE ( 'NONE', #234, 2.000000000000000000 ) ;
#55 = FACE_OUTER_BOUND ( 'NONE', #179, .T. ) ;
#56 = DIRECTION ( 'NONE',  ( 3.491481338843133355E-15, -0.0000000000000000000, 1.000000000000000000 ) ) ;
#57 = CIRCLE ( 'NONE', #140, 0.3181483474218602669 ) ;
#58 = CARTESIAN_POINT ( 'NONE',  ( 3.840629472727445113E-15, 0.0000000000000000000, 1.099999999999999423 ) ) ;
#59 = PLANE ( 'NONE',  #215 ) ;
#60 = PERSON_AND_ORGANIZATION ( #241, #195 ) ;
#61 = AXIS2_PLACEMENT_3D ( 'NONE', #108, #141, #216 ) ;
#62 = DIRECTION ( 'NONE',  ( 4.275831445896958607E-31, 1.000000000000000000, 1.224646799147353207E-16 ) ) ;
#63 = CALENDAR_DATE ( 2021, 15, 11 ) ;
#64 = PERSON_AND_ORGANIZATION ( #241, #195 ) ;
#65 = EDGE_LOOP ( 'NONE', ( #117 ) ) ;
#66 = AXIS2_PLACEMENT_3D ( 'NONE', #167, #208, #210 ) ;
#67 = DIRECTION ( 'NONE',  ( 1.000000000000000000, 0.0000000000000000000, -3.469446951953617344E-15 ) ) ;
#68 = CC_DESIGN_PERSON_AND_ORGANIZATION_ASSIGNMENT ( #6, #128, ( #151 ) ) ;
#69 = CARTESIAN_POINT ( 'NONE',  ( 1.326762908760390675E-13, -4.653657836759942730E-15, 38.00000000000000711 ) ) ;
#70 = AXIS2_PLACEMENT_3D ( 'NONE', #26, #169, #27 ) ;
#71 = VERTEX_POINT ( 'NONE', #122 ) ;
#72 = FACE_OUTER_BOUND ( 'NONE', #48, .T. ) ;
#73 = ADVANCED_FACE ( 'NONE', ( #34, #176 ), #10, .T. ) ;
#74 = DIRECTION ( 'NONE',  ( 3.491481338843133355E-15, -1.224646799147353207E-16, 1.000000000000000000 ) ) ;
#75 = LOCAL_TIME ( 8, 41, 51.00000000000000000, #147 ) ;
#76 = CARTESIAN_POINT ( 'NONE',  ( 1.312796983405018394E-13, -4.604671964794048513E-15, 37.60000000000000853 ) ) ;
#77 = FACE_BOUND ( 'NONE', #65, .T. ) ;
#78 = APPROVAL_ROLE ( '' ) ;
#79 = CONICAL_SURFACE ( 'NONE', #102, 4.000000000000000000, 0.2617993877991428020 ) ;
#80 = APPLICATION_PROTOCOL_DEFINITION ( 'international standard', 'config_control_design', 1994, #174 ) ;
#81 = DIRECTION ( 'NONE',  ( 3.491481338843133355E-15, -0.0000000000000000000, 1.000000000000000000 ) ) ;
#82 = PLANE ( 'NONE',  #229 ) ;
#83 =( NAMED_UNIT ( * ) SI_UNIT ( $, .STERADIAN. ) SOLID_ANGLE_UNIT ( ) );
#84 = CARTESIAN_POINT ( 'NONE',  ( 3.840629472727445902E-15, -1.192622389734054384E-16, 1.099999999999999645 ) ) ;
#85 = AXIS2_PLACEMENT_3D ( 'NONE', #35, #222, #32 ) ;
#86 = EDGE_LOOP ( 'NONE', ( #119 ) ) ;
#87 = EDGE_CURVE ( 'NONE', #14, #14, #57, .T. ) ;
#88 = CC_DESIGN_PERSON_AND_ORGANIZATION_ASSIGNMENT ( #60, #149, ( #151 ) ) ;
#89 = CARTESIAN_POINT ( 'NONE',  ( 0.0000000000000000000, 0.0000000000000000000, 0.0000000000000000000 ) ) ;
#90 = FACE_OUTER_BOUND ( 'NONE', #226, .T. ) ;
#91 = DIRECTION ( 'NONE',  ( 0.0000000000000000000, 1.000000000000000000, 0.0000000000000000000 ) ) ;
#92 = EDGE_CURVE ( 'NONE', #192, #192, #22, .T. ) ;
#93 = EDGE_LOOP ( 'NONE', ( #47 ) ) ;
#94 = EDGE_CURVE ( 'NONE', #218, #218, #237, .T. ) ;
#95 = APPLICATION_PROTOCOL_DEFINITION ( 'international standard', 'config_control_design', 1994, #133 ) ;
#96 = PERSON_AND_ORGANIZATION_ROLE ( 'design_owner' ) ;
#97 = APPROVAL_DATE_TIME ( #163, #214 ) ;
#98 = DIRECTION ( 'NONE',  ( 3.491481338843133355E-15, -0.0000000000000000000, 1.000000000000000000 ) ) ;
#99 =( NAMED_UNIT ( * ) PLANE_ANGLE_UNIT ( ) SI_UNIT ( $, .RADIAN. ) );
#100 = DIRECTION ( 'NONE',  ( 1.000000000000000000, 0.0000000000000000000, -3.469446951953614189E-15 ) ) ;
#101 = CARTESIAN_POINT ( 'NONE',  ( 3.840629472727444324E-15, 0.0000000000000000000, 1.099999999999999201 ) ) ;
#102 = AXIS2_PLACEMENT_3D ( 'NONE', #143, #217, #159 ) ;
#103 = UNCERTAINTY_MEASURE_WITH_UNIT (LENGTH_MEASURE( 1.000000000000000082E-05 ), #113, 'distance_accuracy_value', 'NONE');
#104 = CARTESIAN_POINT ( 'NONE',  ( 0.2500000000000002220, 0.0000000000000000000, -1.362729054369725509E-15 ) ) ;
#105 = ADVANCED_BREP_SHAPE_REPRESENTATION ( '334885', ( #5, #158, #107 ), #120 ) ;
#106 = CC_DESIGN_PERSON_AND_ORGANIZATION_ASSIGNMENT ( #18, #96, ( #190 ) ) ;
#107 = AXIS2_PLACEMENT_3D ( 'NONE', #144, #23, #1 ) ;
#108 = CARTESIAN_POINT ( 'NONE',  ( 1.326762908760390675E-13, -8.377713426430119900E-31, 38.00000000000000711 ) ) ;
#109 = FACE_OUTER_BOUND ( 'NONE', #50, .T. ) ;
#110 = FACE_OUTER_BOUND ( 'NONE', #228, .T. ) ;
#111 = CALENDAR_DATE ( 2021, 15, 11 ) ;
#112 = EDGE_CURVE ( 'NONE', #36, #36, #52, .T. ) ;
#113 =( LENGTH_UNIT ( ) NAMED_UNIT ( * ) SI_UNIT ( .MILLI., .METRE. ) );
#114 = CIRCLE ( 'NONE', #42, 1.999999999999999556 ) ;
#115 = PERSON_AND_ORGANIZATION_ROLE ( 'classification_officer' ) ;
#116 = DIRECTION ( 'NONE',  ( 3.491481338843133355E-15, -0.0000000000000000000, 1.000000000000000000 ) ) ;
#117 = ORIENTED_EDGE ( 'NONE', *, *, #87, .T. ) ;
#118 = ORIENTED_EDGE ( 'NONE', *, *, #92, .F. ) ;
#119 = ORIENTED_EDGE ( 'NONE', *, *, #51, .F. ) ;
#120 =( GEOMETRIC_REPRESENTATION_CONTEXT ( 3 ) GLOBAL_UNCERTAINTY_ASSIGNED_CONTEXT ( ( #103 ) ) GLOBAL_UNIT_ASSIGNED_CONTEXT ( ( #113, #99, #83 ) ) REPRESENTATION_CONTEXT ( 'NONE', 'WORKASPACE' ) );
#121 = CARTESIAN_POINT ( 'NONE',  ( 0.3181483474218658736, 0.0000000000000000000, 1.617638090205027135 ) ) ;
#122 = CARTESIAN_POINT ( 'NONE',  ( 1.312796983405018394E-13, 1.999999999999994893, 37.60000000000000853 ) ) ;
#123 = CC_DESIGN_DATE_AND_TIME_ASSIGNMENT ( #146, #180, ( #142 ) ) ;
#124 = DIRECTION ( 'NONE',  ( 1.000000000000000000, 0.0000000000000000000, -3.491481338843132961E-15 ) ) ;
#125 = CARTESIAN_POINT ( 'NONE',  ( 1.326762908760390675E-13, 1.599999999999997202, 38.00000000000000711 ) ) ;
#126 = PERSON_AND_ORGANIZATION ( #241, #195 ) ;
#127 = ADVANCED_FACE ( 'NONE', ( #157 ), #197, .T. ) ;
#128 = PERSON_AND_ORGANIZATION_ROLE ( 'creator' ) ;
#129 = CALENDAR_DATE ( 2021, 15, 11 ) ;
#130 = SECURITY_CLASSIFICATION ( '', '', #207 ) ;
#131 = ADVANCED_FACE ( 'NONE', ( #178, #110 ), #154, .T. ) ;
#132 = ORIENTED_EDGE ( 'NONE', *, *, #155, .F. ) ;
#133 = APPLICATION_CONTEXT ( 'configuration controlled 3d designs of mechanical parts and assemblies' ) ;
#134 = EDGE_LOOP ( 'NONE', ( #171 ) ) ;
#135 = AXIS2_PLACEMENT_3D ( 'NONE', #240, #193, #199 ) ;
#136 = AXIS2_PLACEMENT_3D ( 'NONE', #69, #16, #91 ) ;
#137 = PLANE ( 'NONE',  #61 ) ;
#138 = SHAPE_DEFINITION_REPRESENTATION ( #30, #105 ) ;
#139 = DIRECTION ( 'NONE',  ( 3.491481338843133355E-15, -1.224646799147353207E-16, 1.000000000000000000 ) ) ;
#140 = AXIS2_PLACEMENT_3D ( 'NONE', #203, #81, #182 ) ;
#141 = DIRECTION ( 'NONE',  ( -3.491481338843133355E-15, 1.224646799147353207E-16, -1.000000000000000000 ) ) ;
#142 = PRODUCT_DEFINITION ( 'UNKNOWN', '', #151, #11 ) ;
#143 = CARTESIAN_POINT ( 'NONE',  ( 5.362390051321011111E-14, 0.0000000000000000000, 15.35849552355844416 ) ) ;
#144 = CARTESIAN_POINT ( 'NONE',  ( 0.0000000000000000000, 0.0000000000000000000, 0.0000000000000000000 ) ) ;
#145 = LOCAL_TIME ( 8, 41, 51.00000000000000000, #24 ) ;
#146 = DATE_AND_TIME ( #129, #206 ) ;
#147 = COORDINATED_UNIVERSAL_TIME_OFFSET ( 1, 0, .AHEAD. ) ;
#148 = ORIENTED_EDGE ( 'NONE', *, *, #94, .F. ) ;
#149 = PERSON_AND_ORGANIZATION_ROLE ( 'design_supplier' ) ;
#150 = ORIENTED_EDGE ( 'NONE', *, *, #29, .F. ) ;
#151 = PRODUCT_DEFINITION_FORMATION_WITH_SPECIFIED_SOURCE ( 'ANY', '', #190, .NOT_KNOWN. ) ;
#152 = DIRECTION ( 'NONE',  ( -3.491481338843133355E-15, 1.224646799147353207E-16, -1.000000000000000000 ) ) ;
#153 = CARTESIAN_POINT ( 'NONE',  ( 1.312796983405018394E-13, -4.604671964794048513E-15, 37.60000000000000853 ) ) ;
#154 = CONICAL_SURFACE ( 'NONE', #191, 1.999999999999999556, 0.7853981633974485010 ) ;
#155 = EDGE_CURVE ( 'NONE', #71, #71, #114, .T. ) ;
#156 = FACE_OUTER_BOUND ( 'NONE', #134, .T. ) ;
#157 = FACE_OUTER_BOUND ( 'NONE', #86, .T. ) ;
#158 = MANIFOLD_SOLID_BREP ( 'Corps-Déplacer/Copier1[2]', #232 ) ;
#159 = DIRECTION ( 'NONE',  ( 1.000000000000000000, 0.0000000000000000000, -3.469446951953614189E-15 ) ) ;
#160 = LOCAL_TIME ( 8, 41, 51.00000000000000000, #183 ) ;
#161 = CARTESIAN_POINT ( 'NONE',  ( 2.000000000000027978, 0.0000000000000000000, 7.894393908420484607 ) ) ;
#162 = COORDINATED_UNIVERSAL_TIME_OFFSET ( 1, 0, .AHEAD. ) ;
#163 = DATE_AND_TIME ( #46, #145 ) ;
#164 = CC_DESIGN_APPROVAL ( #43, ( #130 ) ) ;
#165 = APPROVAL_DATE_TIME ( #21, #43 ) ;
#166 = ADVANCED_FACE ( 'NONE', ( #90, #77 ), #79, .T. ) ;
#167 = CARTESIAN_POINT ( 'NONE',  ( -1.710332578358783092E-30, 0.0000000000000000000, -4.898587196589412829E-16 ) ) ;
#168 = PERSON_AND_ORGANIZATION_ROLE ( 'creator' ) ;
#169 = DIRECTION ( 'NONE',  ( 3.491481338843133355E-15, -0.0000000000000000000, 1.000000000000000000 ) ) ;
#170 = ADVANCED_FACE ( 'NONE', ( #72, #177 ), #31, .T. ) ;
#171 = ORIENTED_EDGE ( 'NONE', *, *, #92, .T. ) ;
#172 = CARTESIAN_POINT ( 'NONE',  ( 0.2500000000000036637, 0.0000000000000000000, 1.099999999999998312 ) ) ;
#173 = TOROIDAL_SURFACE ( 'NONE', #211, 2.250000000000000444, 2.000000000000000000 ) ;
#174 = APPLICATION_CONTEXT ( 'configuration controlled 3d designs of mechanical parts and assemblies' ) ;
#175 = VERTEX_POINT ( 'NONE', #161 ) ;
#176 = FACE_OUTER_BOUND ( 'NONE', #189, .T. ) ;
#177 = FACE_OUTER_BOUND ( 'NONE', #17, .T. ) ;
#178 = FACE_BOUND ( 'NONE', #93, .T. ) ;
#179 = EDGE_LOOP ( 'NONE', ( #45 ) ) ;
#180 = DATE_TIME_ROLE ( 'creation_date' ) ;
#181 = APPROVAL_STATUS ( 'not_yet_approved' ) ;
#182 = DIRECTION ( 'NONE',  ( 1.000000000000000000, 0.0000000000000000000, -3.407851026954628270E-15 ) ) ;
#183 = COORDINATED_UNIVERSAL_TIME_OFFSET ( 1, 0, .AHEAD. ) ;
#184 = AXIS2_PLACEMENT_3D ( 'NONE', #101, #116, #67 ) ;
#185 = MECHANICAL_CONTEXT ( 'NONE', #133, 'mechanical' ) ;
#186 = CC_DESIGN_PERSON_AND_ORGANIZATION_ASSIGNMENT ( #64, #168, ( #142 ) ) ;
#187 = CARTESIAN_POINT ( 'NONE',  ( 2.756312901272705552E-14, 0.0000000000000000000, 7.894393908420490824 ) ) ;
#188 = ORIENTED_EDGE ( 'NONE', *, *, #29, .T. ) ;
#189 = EDGE_LOOP ( 'NONE', ( #188 ) ) ;
#190 = PRODUCT ( '334885', '334885', '', ( #185 ) ) ;
#191 = AXIS2_PLACEMENT_3D ( 'NONE', #153, #13, #220 ) ;
#192 = VERTEX_POINT ( 'NONE', #198 ) ;
#193 = DIRECTION ( 'NONE',  ( -3.491481338843133355E-15, 1.224646799147353207E-16, -1.000000000000000000 ) ) ;
#194 = DIRECTION ( 'NONE',  ( -4.275831445896958607E-31, -1.000000000000000000, -1.224646799147353207E-16 ) ) ;
#195 = ORGANIZATION ( 'UNSPECIFIED', 'UNSPECIFIED', '' ) ;
#196 = ADVANCED_FACE ( 'NONE', ( #156 ), #59, .T. ) ;
#197 = PLANE ( 'NONE',  #135 ) ;
#198 = CARTESIAN_POINT ( 'NONE',  ( 0.2500000000000036637, 0.0000000000000000000, 1.099999999999998312 ) ) ;
#199 = DIRECTION ( 'NONE',  ( 4.275831445896958607E-31, 1.000000000000000000, 1.224646799147353207E-16 ) ) ;
#200 = PRODUCT_RELATED_PRODUCT_CATEGORY ( 'detail', '', ( #190 ) ) ;
#201 = LOCAL_TIME ( 8, 41, 51.00000000000000000, #162 ) ;
#202 = CALENDAR_DATE ( 2021, 15, 11 ) ;
#203 = CARTESIAN_POINT ( 'NONE',  ( 5.647953204952700705E-15, 0.0000000000000000000, 1.617638090205028245 ) ) ;
#204 = APPROVAL_DATE_TIME ( #223, #2 ) ;
#205 = EDGE_LOOP ( 'NONE', ( #9 ) ) ;
#206 = LOCAL_TIME ( 8, 41, 51.00000000000000000, #227 ) ;
#207 = SECURITY_CLASSIFICATION_LEVEL ( 'unclassified' ) ;
#208 = DIRECTION ( 'NONE',  ( 3.491481338843133355E-15, -0.0000000000000000000, 1.000000000000000000 ) ) ;
#209 = APPROVAL_STATUS ( 'not_yet_approved' ) ;
#210 = DIRECTION ( 'NONE',  ( 1.000000000000000000, 0.0000000000000000000, -3.491481338843133355E-15 ) ) ;
#211 = AXIS2_PLACEMENT_3D ( 'NONE', #58, #56, #124 ) ;
#212 = ORIENTED_EDGE ( 'NONE', *, *, #155, .T. ) ;
#213 = CIRCLE ( 'NONE', #66, 0.2500000000000002220 ) ;
#214 = APPROVAL ( #181, 'UNSPECIFIED' ) ;
#215 = AXIS2_PLACEMENT_3D ( 'NONE', #15, #139, #236 ) ;
#216 = DIRECTION ( 'NONE',  ( 4.275831445896958607E-31, 1.000000000000000000, 1.224646799147353207E-16 ) ) ;
#217 = DIRECTION ( 'NONE',  ( 3.491481338843133355E-15, -0.0000000000000000000, 1.000000000000000000 ) ) ;
#218 = VERTEX_POINT ( 'NONE', #172 ) ;
#219 = CC_DESIGN_APPROVAL ( #214, ( #151 ) ) ;
#220 = DIRECTION ( 'NONE',  ( 0.0000000000000000000, 1.000000000000000000, 0.0000000000000000000 ) ) ;
#221 = ADVANCED_FACE ( 'NONE', ( #238, #109 ), #173, .F. ) ;
#222 = DIRECTION ( 'NONE',  ( 3.491481338843133355E-15, -0.0000000000000000000, 1.000000000000000000 ) ) ;
#223 = DATE_AND_TIME ( #63, #75 ) ;
#224 = APPROVAL_STATUS ( 'not_yet_approved' ) ;
#225 = CLOSED_SHELL ( 'NONE', ( #73, #131, #235, #221, #166, #53 ) ) ;
#226 = EDGE_LOOP ( 'NONE', ( #150 ) ) ;
#227 = COORDINATED_UNIVERSAL_TIME_OFFSET ( 1, 0, .AHEAD. ) ;
#228 = EDGE_LOOP ( 'NONE', ( #132 ) ) ;
#229 = AXIS2_PLACEMENT_3D ( 'NONE', #84, #74, #194 ) ;
#230 = PERSON_AND_ORGANIZATION ( #241, #195 ) ;
#231 = ORIENTED_EDGE ( 'NONE', *, *, #51, .T. ) ;
#232 = CLOSED_SHELL ( 'NONE', ( #196, #170, #127 ) ) ;
#233 = AXIS2_PLACEMENT_3D ( 'NONE', #89, #152, #62 ) ;
#234 = AXIS2_PLACEMENT_3D ( 'NONE', #187, #98, #100 ) ;
#235 = ADVANCED_FACE ( 'NONE', ( #55 ), #137, .F. ) ;
#236 = DIRECTION ( 'NONE',  ( -4.275831445896958607E-31, -1.000000000000000000, -1.224646799147353207E-16 ) ) ;
#237 = CIRCLE ( 'NONE', #70, 0.2499999999999997780 ) ;
#238 = FACE_OUTER_BOUND ( 'NONE', #205, .T. ) ;
#239 = DIRECTION ( 'NONE',  ( -3.491481338843133355E-15, 1.224646799147353207E-16, -1.000000000000000000 ) ) ;
#240 = CARTESIAN_POINT ( 'NONE',  ( -4.275831445896957731E-31, 1.499759782661857608E-32, -1.224646799147353207E-16 ) ) ;
#241 = PERSON ( 'UNSPECIFIED', 'UNSPECIFIED', 'UNSPECIFIED', ('UNSPECIFIED'), ('UNSPECIFIED'), ('UNSPECIFIED') ) ;
#242 = PERSON_AND_ORGANIZATION ( #241, #195 ) ;
#243 = APPROVAL_PERSON_ORGANIZATION ( #230, #2, #3 ) ;
ENDSEC;
END-ISO-10303-21;
