ISO-10303-21;
HEADER;
FILE_DESCRIPTION (( 'STEP AP203' ),
    '1' );
FILE_NAME ('334884.step',
    '2021-11-15T07:41:51',
    ( '' ),
    ( '' ),
    'SwSTEP 2.0',
    'SolidWorks 2019',
    '' );
FILE_SCHEMA (( 'CONFIG_CONTROL_DESIGN' ));
ENDSEC;

DATA;
#1 = CARTESIAN_POINT ( 'NONE',  ( 3.491481338843130989E-15, 0.0000000000000000000, 0.9999999999999993339 ) ) ;
#2 = ORIENTED_EDGE ( 'NONE', *, *, #217, .F. ) ;
#3 = FACE_OUTER_BOUND ( 'NONE', #38, .T. ) ;
#4 = SECURITY_CLASSIFICATION ( '', '', #181 ) ;
#5 = FACE_OUTER_BOUND ( 'NONE', #117, .T. ) ;
#6 = CARTESIAN_POINT ( 'NONE',  ( 1.312796983405018394E-13, 1.999999999999994893, 37.60000000000000853 ) ) ;
#7 = CARTESIAN_POINT ( 'NONE',  ( 1.326762908760390675E-13, 1.599999999999997202, 38.00000000000000711 ) ) ;
#8 = VERTEX_POINT ( 'NONE', #229 ) ;
#9 = CALENDAR_DATE ( 2021, 15, 11 ) ;
#10 = ADVANCED_BREP_SHAPE_REPRESENTATION ( '334884', ( #143, #65, #24 ), #232 ) ;
#11 = DIRECTION ( 'NONE',  ( 0.0000000000000000000, 1.000000000000000000, 0.0000000000000000000 ) ) ;
#12 = CALENDAR_DATE ( 2021, 15, 11 ) ;
#13 = MECHANICAL_CONTEXT ( 'NONE', #224, 'mechanical' ) ;
#14 = COORDINATED_UNIVERSAL_TIME_OFFSET ( 1, 0, .AHEAD. ) ;
#15 = FACE_OUTER_BOUND ( 'NONE', #189, .T. ) ;
#16 = EDGE_CURVE ( 'NONE', #142, #142, #17, .T. ) ;
#17 = CIRCLE ( 'NONE', #160, 1.600000000000001865 ) ;
#18 = CARTESIAN_POINT ( 'NONE',  ( 2.753974052259879615E-14, 0.0000000000000000000, 7.887695178609720692 ) ) ;
#19 = PRODUCT_DEFINITION_SHAPE ( 'NONE', 'NONE',  #220 ) ;
#20 = DIRECTION ( 'NONE',  ( 1.000000000000000000, 0.0000000000000000000, -3.491481338843133355E-15 ) ) ;
#21 = FACE_OUTER_BOUND ( 'NONE', #124, .T. ) ;
#22 = CC_DESIGN_PERSON_AND_ORGANIZATION_ASSIGNMENT ( #57, #200, ( #150 ) ) ;
#23 = DIRECTION ( 'NONE',  ( 1.000000000000000000, 0.0000000000000000000, -3.469446951953614189E-15 ) ) ;
#24 = AXIS2_PLACEMENT_3D ( 'NONE', #201, #153, #180 ) ;
#25 = CARTESIAN_POINT ( 'NONE',  ( 3.491481338843132566E-15, -1.084202172485504311E-16, 0.9999999999999997780 ) ) ;
#26 = ADVANCED_FACE ( 'NONE', ( #3, #21 ), #53, .F. ) ;
#27 = CARTESIAN_POINT ( 'NONE',  ( 0.2931483474218648522, 0.0000000000000000000, 1.517638090205027268 ) ) ;
#28 = CC_DESIGN_DATE_AND_TIME_ASSIGNMENT ( #56, #39, ( #220 ) ) ;
#29 = AXIS2_PLACEMENT_3D ( 'NONE', #186, #190, #23 ) ;
#30 = VERTEX_POINT ( 'NONE', #230 ) ;
#31 = CALENDAR_DATE ( 2021, 15, 11 ) ;
#32 = ORIENTED_EDGE ( 'NONE', *, *, #242, .T. ) ;
#33 = COORDINATED_UNIVERSAL_TIME_OFFSET ( 1, 0, .AHEAD. ) ;
#34 = AXIS2_PLACEMENT_3D ( 'NONE', #107, #221, #136 ) ;
#35 = PERSON_AND_ORGANIZATION_ROLE ( 'classification_officer' ) ;
#36 = PERSON_AND_ORGANIZATION ( #111, #194 ) ;
#37 = PERSON_AND_ORGANIZATION ( #111, #194 ) ;
#38 = EDGE_LOOP ( 'NONE', ( #80 ) ) ;
#39 = DATE_TIME_ROLE ( 'creation_date' ) ;
#40 = ORIENTED_EDGE ( 'NONE', *, *, #217, .T. ) ;
#41 = CARTESIAN_POINT ( 'NONE',  ( 3.491481338843130989E-15, 0.0000000000000000000, 0.9999999999999993339 ) ) ;
#42 = ORIENTED_EDGE ( 'NONE', *, *, #179, .F. ) ;
#43 = DIRECTION ( 'NONE',  ( 1.000000000000000000, 0.0000000000000000000, -3.491481338843133750E-15 ) ) ;
#44 = CARTESIAN_POINT ( 'NONE',  ( 0.0000000000000000000, 0.0000000000000000000, 0.0000000000000000000 ) ) ;
#45 = CC_DESIGN_PERSON_AND_ORGANIZATION_ASSIGNMENT ( #75, #178, ( #67 ) ) ;
#46 = CARTESIAN_POINT ( 'NONE',  ( 1.312796983405018394E-13, -4.604671964794048513E-15, 37.60000000000000853 ) ) ;
#47 = VERTEX_POINT ( 'NONE', #177 ) ;
#48 = DIRECTION ( 'NONE',  ( 3.491481338843133355E-15, -0.0000000000000000000, 1.000000000000000000 ) ) ;
#49 = AXIS2_PLACEMENT_3D ( 'NONE', #1, #158, #243 ) ;
#50 = DIRECTION ( 'NONE',  ( 1.000000000000000000, 0.0000000000000000000, -3.469446951953614189E-15 ) ) ;
#51 = LOCAL_TIME ( 8, 41, 51.00000000000000000, #184 ) ;
#52 = APPROVAL_ROLE ( '' ) ;
#53 = TOROIDAL_SURFACE ( 'NONE', #187, 2.224999999999999645, 2.000000000000000000 ) ;
#54 =( LENGTH_UNIT ( ) NAMED_UNIT ( * ) SI_UNIT ( .MILLI., .METRE. ) );
#55 = EDGE_LOOP ( 'NONE', ( #2 ) ) ;
#56 = DATE_AND_TIME ( #213, #64 ) ;
#57 = PERSON_AND_ORGANIZATION ( #111, #194 ) ;
#58 = APPLICATION_PROTOCOL_DEFINITION ( 'international standard', 'config_control_design', 1994, #224 ) ;
#59 = ADVANCED_FACE ( 'NONE', ( #15, #183 ), #204, .T. ) ;
#60 = ORIENTED_EDGE ( 'NONE', *, *, #179, .T. ) ;
#61 = DIRECTION ( 'NONE',  ( -4.275831445896958607E-31, -1.000000000000000000, -1.224646799147353207E-16 ) ) ;
#62 = ORIENTED_EDGE ( 'NONE', *, *, #71, .F. ) ;
#63 = EDGE_LOOP ( 'NONE', ( #139 ) ) ;
#64 = LOCAL_TIME ( 8, 41, 51.00000000000000000, #14 ) ;
#65 = MANIFOLD_SOLID_BREP ( 'Corps-Déplacer/Copier1[2]', #103 ) ;
#66 = CC_DESIGN_PERSON_AND_ORGANIZATION_ASSIGNMENT ( #36, #120, ( #150 ) ) ;
#67 = PRODUCT ( '334884', '334884', '', ( #13 ) ) ;
#68 = CARTESIAN_POINT ( 'NONE',  ( 5.298805071068388947E-15, 0.0000000000000000000, 1.517638090205028378 ) ) ;
#69 = CONICAL_SURFACE ( 'NONE', #191, 1.999999999999999556, 0.7853981633974485010 ) ;
#70 = VERTEX_POINT ( 'NONE', #91 ) ;
#71 = EDGE_CURVE ( 'NONE', #30, #30, #87, .T. ) ;
#72 = AXIS2_PLACEMENT_3D ( 'NONE', #25, #110, #195 ) ;
#73 = ORIENTED_EDGE ( 'NONE', *, *, #77, .T. ) ;
#74 = PERSON_AND_ORGANIZATION ( #111, #194 ) ;
#75 = PERSON_AND_ORGANIZATION ( #111, #194 ) ;
#76 = AXIS2_PLACEMENT_3D ( 'NONE', #162, #115, #207 ) ;
#77 = EDGE_CURVE ( 'NONE', #47, #47, #173, .T. ) ;
#78 = CLOSED_SHELL ( 'NONE', ( #237, #225, #171, #26, #97, #231 ) ) ;
#79 = ORIENTED_EDGE ( 'NONE', *, *, #16, .F. ) ;
#80 = ORIENTED_EDGE ( 'NONE', *, *, #89, .T. ) ;
#81 = AXIS2_PLACEMENT_3D ( 'NONE', #41, #168, #105 ) ;
#82 = FACE_BOUND ( 'NONE', #122, .T. ) ;
#83 = DIRECTION ( 'NONE',  ( 1.000000000000000000, 0.0000000000000000000, -3.491481338843133355E-15 ) ) ;
#84 = ORIENTED_EDGE ( 'NONE', *, *, #16, .T. ) ;
#85 = CC_DESIGN_PERSON_AND_ORGANIZATION_ASSIGNMENT ( #182, #133, ( #220 ) ) ;
#86 = LOCAL_TIME ( 8, 41, 51.00000000000000000, #161 ) ;
#87 = CIRCLE ( 'NONE', #176, 0.2249999999999999500 ) ;
#88 = FACE_OUTER_BOUND ( 'NONE', #130, .T. ) ;
#89 = EDGE_CURVE ( 'NONE', #8, #8, #129, .T. ) ;
#90 = VERTEX_POINT ( 'NONE', #27 ) ;
#91 = CARTESIAN_POINT ( 'NONE',  ( 2.000000000000027978, 0.0000000000000000000, 7.887695178609713587 ) ) ;
#92 = EDGE_LOOP ( 'NONE', ( #62 ) ) ;
#93 = EDGE_LOOP ( 'NONE', ( #84 ) ) ;
#94 = DATE_AND_TIME ( #9, #51 ) ;
#95 = APPROVAL_PERSON_ORGANIZATION ( #99, #119, #164 ) ;
#96 = APPROVAL_STATUS ( 'not_yet_approved' ) ;
#97 = ADVANCED_FACE ( 'NONE', ( #155, #82 ), #101, .T. ) ;
#98 = COORDINATED_UNIVERSAL_TIME_OFFSET ( 1, 0, .AHEAD. ) ;
#99 = PERSON_AND_ORGANIZATION ( #111, #194 ) ;
#100 = AXIS2_PLACEMENT_3D ( 'NONE', #218, #134, #202 ) ;
#101 = CONICAL_SURFACE ( 'NONE', #29, 4.000000000000000000, 0.2617993877991428020 ) ;
#102 = FACE_OUTER_BOUND ( 'NONE', #123, .T. ) ;
#103 = CLOSED_SHELL ( 'NONE', ( #144, #59, #165 ) ) ;
#104 = CARTESIAN_POINT ( 'NONE',  ( -1.710332578358783092E-30, 0.0000000000000000000, -4.898587196589412829E-16 ) ) ;
#105 = DIRECTION ( 'NONE',  ( 1.000000000000000000, 0.0000000000000000000, -3.854941057726238689E-15 ) ) ;
#106 = CARTESIAN_POINT ( 'NONE',  ( 3.491481338843131778E-15, 0.0000000000000000000, 0.9999999999999995559 ) ) ;
#107 = CARTESIAN_POINT ( 'NONE',  ( -4.275831445896957731E-31, 1.499759782661857608E-32, -1.224646799147353207E-16 ) ) ;
#108 = FACE_OUTER_BOUND ( 'NONE', #55, .T. ) ;
#109 = UNCERTAINTY_MEASURE_WITH_UNIT (LENGTH_MEASURE( 1.000000000000000082E-05 ), #54, 'distance_accuracy_value', 'NONE');
#110 = DIRECTION ( 'NONE',  ( 3.491481338843133355E-15, -1.224646799147353207E-16, 1.000000000000000000 ) ) ;
#111 = PERSON ( 'UNSPECIFIED', 'UNSPECIFIED', 'UNSPECIFIED', ('UNSPECIFIED'), ('UNSPECIFIED'), ('UNSPECIFIED') ) ;
#112 = PRODUCT_RELATED_PRODUCT_CATEGORY ( 'detail', '', ( #67 ) ) ;
#113 = CARTESIAN_POINT ( 'NONE',  ( 1.312796983405018394E-13, -4.604671964794048513E-15, 37.60000000000000853 ) ) ;
#114 = APPROVAL_PERSON_ORGANIZATION ( #37, #211, #234 ) ;
#115 = DIRECTION ( 'NONE',  ( -3.491481338843133355E-15, 1.224646799147353207E-16, -1.000000000000000000 ) ) ;
#116 = DATE_TIME_ROLE ( 'classification_date' ) ;
#117 = EDGE_LOOP ( 'NONE', ( #40 ) ) ;
#118 = LOCAL_TIME ( 8, 41, 51.00000000000000000, #33 ) ;
#119 = APPROVAL ( #131, 'UNSPECIFIED' ) ;
#120 = PERSON_AND_ORGANIZATION_ROLE ( 'design_supplier' ) ;
#121 = APPROVAL_STATUS ( 'not_yet_approved' ) ;
#122 = EDGE_LOOP ( 'NONE', ( #32 ) ) ;
#123 = EDGE_LOOP ( 'NONE', ( #73 ) ) ;
#124 = EDGE_LOOP ( 'NONE', ( #209 ) ) ;
#125 = ORIENTED_EDGE ( 'NONE', *, *, #77, .F. ) ;
#126 = DIRECTION ( 'NONE',  ( 3.491481338843133355E-15, -0.0000000000000000000, 1.000000000000000000 ) ) ;
#127 = CC_DESIGN_DATE_AND_TIME_ASSIGNMENT ( #132, #116, ( #4 ) ) ;
#128 = DIRECTION ( 'NONE',  ( -3.491481338843133355E-15, 1.224646799147353207E-16, -1.000000000000000000 ) ) ;
#129 = CIRCLE ( 'NONE', #49, 0.2249999999999999500 ) ;
#130 = EDGE_LOOP ( 'NONE', ( #60 ) ) ;
#131 = APPROVAL_STATUS ( 'not_yet_approved' ) ;
#132 = DATE_AND_TIME ( #31, #86 ) ;
#133 = PERSON_AND_ORGANIZATION_ROLE ( 'creator' ) ;
#134 = DIRECTION ( 'NONE',  ( -3.491481338843133355E-15, 1.224646799147353207E-16, -1.000000000000000000 ) ) ;
#135 = DIRECTION ( 'NONE',  ( 3.491481338843133355E-15, -0.0000000000000000000, 1.000000000000000000 ) ) ;
#136 = DIRECTION ( 'NONE',  ( 4.275831445896958607E-31, 1.000000000000000000, 1.224646799147353207E-16 ) ) ;
#137 = DIRECTION ( 'NONE',  ( -3.491481338843133355E-15, 1.224646799147353207E-16, -1.000000000000000000 ) ) ;
#138 = CC_DESIGN_APPROVAL ( #196, ( #4 ) ) ;
#139 = ORIENTED_EDGE ( 'NONE', *, *, #89, .F. ) ;
#140 = DIRECTION ( 'NONE',  ( 1.000000000000000000, 0.0000000000000000000, -3.698476153867813419E-15 ) ) ;
#141 = AXIS2_PLACEMENT_3D ( 'NONE', #68, #48, #140 ) ;
#142 = VERTEX_POINT ( 'NONE', #7 ) ;
#143 = MANIFOLD_SOLID_BREP ( 'Corps-Déplacer/Copier1[1]', #78 ) ;
#144 = ADVANCED_FACE ( 'NONE', ( #102 ), #157, .T. ) ;
#145 = CIRCLE ( 'NONE', #141, 0.2931483474218595231 ) ;
#146 = DIRECTION ( 'NONE',  ( -3.491481338843133355E-15, 1.224646799147353207E-16, -1.000000000000000000 ) ) ;
#147 = APPROVAL_DATE_TIME ( #94, #211 ) ;
#148 = DATE_AND_TIME ( #236, #118 ) ;
#149 = APPLICATION_CONTEXT ( 'configuration controlled 3d designs of mechanical parts and assemblies' ) ;
#150 = PRODUCT_DEFINITION_FORMATION_WITH_SPECIFIED_SOURCE ( 'ANY', '', #67, .NOT_KNOWN. ) ;
#151 = APPLICATION_PROTOCOL_DEFINITION ( 'international standard', 'config_control_design', 1994, #149 ) ;
#152 = APPROVAL_DATE_TIME ( #198, #196 ) ;
#153 = DIRECTION ( 'NONE',  ( 0.0000000000000000000, 0.0000000000000000000, 1.000000000000000000 ) ) ;
#154 = FACE_OUTER_BOUND ( 'NONE', #92, .T. ) ;
#155 = FACE_OUTER_BOUND ( 'NONE', #205, .T. ) ;
#156 = AXIS2_PLACEMENT_3D ( 'NONE', #46, #146, #11 ) ;
#157 = PLANE ( 'NONE',  #227 ) ;
#158 = DIRECTION ( 'NONE',  ( 3.491481338843133355E-15, -0.0000000000000000000, 1.000000000000000000 ) ) ;
#159 = PLANE ( 'NONE',  #100 ) ;
#160 = AXIS2_PLACEMENT_3D ( 'NONE', #206, #137, #188 ) ;
#161 = COORDINATED_UNIVERSAL_TIME_OFFSET ( 1, 0, .AHEAD. ) ;
#162 = CARTESIAN_POINT ( 'NONE',  ( 0.0000000000000000000, 0.0000000000000000000, 0.0000000000000000000 ) ) ;
#163 = PLANE ( 'NONE',  #72 ) ;
#164 = APPROVAL_ROLE ( '' ) ;
#165 = ADVANCED_FACE ( 'NONE', ( #154 ), #241, .T. ) ;
#166 = CC_DESIGN_SECURITY_CLASSIFICATION ( #4, ( #150 ) ) ;
#167 = CARTESIAN_POINT ( 'NONE',  ( 3.491481338843132566E-15, -1.084202172485504311E-16, 0.9999999999999997780 ) ) ;
#168 = DIRECTION ( 'NONE',  ( 3.491481338843133355E-15, -0.0000000000000000000, 1.000000000000000000 ) ) ;
#169 = DIRECTION ( 'NONE',  ( 3.491481338843133355E-15, -0.0000000000000000000, 1.000000000000000000 ) ) ;
#170 = AXIS2_PLACEMENT_3D ( 'NONE', #18, #135, #50 ) ;
#171 = ADVANCED_FACE ( 'NONE', ( #172 ), #159, .F. ) ;
#172 = FACE_OUTER_BOUND ( 'NONE', #223, .T. ) ;
#173 = CIRCLE ( 'NONE', #81, 0.2249999999999999500 ) ;
#174 = FACE_OUTER_BOUND ( 'NONE', #63, .T. ) ;
#175 = CC_DESIGN_PERSON_AND_ORGANIZATION_ASSIGNMENT ( #74, #35, ( #4 ) ) ;
#176 = AXIS2_PLACEMENT_3D ( 'NONE', #104, #222, #83 ) ;
#177 = CARTESIAN_POINT ( 'NONE',  ( 0.2250000000000034472, 0.0000000000000000000, 0.9999999999999985567 ) ) ;
#178 = PERSON_AND_ORGANIZATION_ROLE ( 'design_owner' ) ;
#179 = EDGE_CURVE ( 'NONE', #70, #70, #203, .T. ) ;
#180 = DIRECTION ( 'NONE',  ( 1.000000000000000000, 0.0000000000000000000, 0.0000000000000000000 ) ) ;
#181 = SECURITY_CLASSIFICATION_LEVEL ( 'unclassified' ) ;
#182 = PERSON_AND_ORGANIZATION ( #111, #194 ) ;
#183 = FACE_OUTER_BOUND ( 'NONE', #215, .T. ) ;
#184 = COORDINATED_UNIVERSAL_TIME_OFFSET ( 1, 0, .AHEAD. ) ;
#185 = CC_DESIGN_APPROVAL ( #119, ( #150 ) ) ;
#186 = CARTESIAN_POINT ( 'NONE',  ( 5.360051202308184544E-14, 0.0000000000000000000, 15.35179679374767225 ) ) ;
#187 = AXIS2_PLACEMENT_3D ( 'NONE', #106, #169, #43 ) ;
#188 = DIRECTION ( 'NONE',  ( 0.0000000000000000000, 1.000000000000000000, 0.0000000000000000000 ) ) ;
#189 = EDGE_LOOP ( 'NONE', ( #239 ) ) ;
#190 = DIRECTION ( 'NONE',  ( 3.491481338843133355E-15, -0.0000000000000000000, 1.000000000000000000 ) ) ;
#191 = AXIS2_PLACEMENT_3D ( 'NONE', #113, #128, #193 ) ;
#192 = VERTEX_POINT ( 'NONE', #6 ) ;
#193 = DIRECTION ( 'NONE',  ( 0.0000000000000000000, 1.000000000000000000, 0.0000000000000000000 ) ) ;
#194 = ORGANIZATION ( 'UNSPECIFIED', 'UNSPECIFIED', '' ) ;
#195 = DIRECTION ( 'NONE',  ( -4.275831445896958607E-31, -1.000000000000000000, -1.224646799147353207E-16 ) ) ;
#196 = APPROVAL ( #96, 'UNSPECIFIED' ) ;
#197 =( NAMED_UNIT ( * ) SI_UNIT ( $, .STERADIAN. ) SOLID_ANGLE_UNIT ( ) );
#198 = DATE_AND_TIME ( #12, #238 ) ;
#199 = CIRCLE ( 'NONE', #156, 1.999999999999999556 ) ;
#200 = PERSON_AND_ORGANIZATION_ROLE ( 'creator' ) ;
#201 = CARTESIAN_POINT ( 'NONE',  ( 0.0000000000000000000, 0.0000000000000000000, 0.0000000000000000000 ) ) ;
#202 = DIRECTION ( 'NONE',  ( 4.275831445896958607E-31, 1.000000000000000000, 1.224646799147353207E-16 ) ) ;
#203 = CIRCLE ( 'NONE', #170, 2.000000000000000000 ) ;
#204 = CYLINDRICAL_SURFACE ( 'NONE', #212, 0.2249999999999999500 ) ;
#205 = EDGE_LOOP ( 'NONE', ( #42 ) ) ;
#206 = CARTESIAN_POINT ( 'NONE',  ( 1.326762908760390675E-13, -4.653657836759942730E-15, 38.00000000000000711 ) ) ;
#207 = DIRECTION ( 'NONE',  ( 4.275831445896958607E-31, 1.000000000000000000, 1.224646799147353207E-16 ) ) ;
#208 = CC_DESIGN_APPROVAL ( #211, ( #220 ) ) ;
#209 = ORIENTED_EDGE ( 'NONE', *, *, #242, .F. ) ;
#210 = APPROVAL_PERSON_ORGANIZATION ( #235, #196, #52 ) ;
#211 = APPROVAL ( #121, 'UNSPECIFIED' ) ;
#212 = AXIS2_PLACEMENT_3D ( 'NONE', #44, #126, #20 ) ;
#213 = CALENDAR_DATE ( 2021, 15, 11 ) ;
#214 = FACE_BOUND ( 'NONE', #93, .T. ) ;
#215 = EDGE_LOOP ( 'NONE', ( #125 ) ) ;
#216 = APPROVAL_DATE_TIME ( #148, #119 ) ;
#217 = EDGE_CURVE ( 'NONE', #192, #192, #199, .T. ) ;
#218 = CARTESIAN_POINT ( 'NONE',  ( 1.326762908760390675E-13, -8.377713426430119900E-31, 38.00000000000000711 ) ) ;
#219 = DIRECTION ( 'NONE',  ( 3.491481338843133355E-15, -1.224646799147353207E-16, 1.000000000000000000 ) ) ;
#220 = PRODUCT_DEFINITION ( 'UNKNOWN', '', #150, #226 ) ;
#221 = DIRECTION ( 'NONE',  ( -3.491481338843133355E-15, 1.224646799147353207E-16, -1.000000000000000000 ) ) ;
#222 = DIRECTION ( 'NONE',  ( 3.491481338843133355E-15, -0.0000000000000000000, 1.000000000000000000 ) ) ;
#223 = EDGE_LOOP ( 'NONE', ( #79 ) ) ;
#224 = APPLICATION_CONTEXT ( 'configuration controlled 3d designs of mechanical parts and assemblies' ) ;
#225 = ADVANCED_FACE ( 'NONE', ( #214, #108 ), #69, .T. ) ;
#226 = DESIGN_CONTEXT ( 'detailed design', #149, 'design' ) ;
#227 = AXIS2_PLACEMENT_3D ( 'NONE', #167, #219, #61 ) ;
#228 = CYLINDRICAL_SURFACE ( 'NONE', #76, 2.000000000000000000 ) ;
#229 = CARTESIAN_POINT ( 'NONE',  ( 0.2250000000000034472, 0.0000000000000000000, 0.9999999999999985567 ) ) ;
#230 = CARTESIAN_POINT ( 'NONE',  ( 0.2249999999999999500, 0.0000000000000000000, -1.275442020898645992E-15 ) ) ;
#231 = ADVANCED_FACE ( 'NONE', ( #174 ), #163, .F. ) ;
#232 =( GEOMETRIC_REPRESENTATION_CONTEXT ( 3 ) GLOBAL_UNCERTAINTY_ASSIGNED_CONTEXT ( ( #109 ) ) GLOBAL_UNIT_ASSIGNED_CONTEXT ( ( #54, #240, #197 ) ) REPRESENTATION_CONTEXT ( 'NONE', 'WORKASPACE' ) );
#233 = SHAPE_DEFINITION_REPRESENTATION ( #19, #10 ) ;
#234 = APPROVAL_ROLE ( '' ) ;
#235 = PERSON_AND_ORGANIZATION ( #111, #194 ) ;
#236 = CALENDAR_DATE ( 2021, 15, 11 ) ;
#237 = ADVANCED_FACE ( 'NONE', ( #5, #88 ), #228, .T. ) ;
#238 = LOCAL_TIME ( 8, 41, 51.00000000000000000, #98 ) ;
#239 = ORIENTED_EDGE ( 'NONE', *, *, #71, .T. ) ;
#240 =( NAMED_UNIT ( * ) PLANE_ANGLE_UNIT ( ) SI_UNIT ( $, .RADIAN. ) );
#241 = PLANE ( 'NONE',  #34 ) ;
#242 = EDGE_CURVE ( 'NONE', #90, #90, #145, .T. ) ;
#243 = DIRECTION ( 'NONE',  ( 1.000000000000000000, 0.0000000000000000000, -3.854941057726238689E-15 ) ) ;
ENDSEC;
END-ISO-10303-21;
