ISO-10303-21;
HEADER;
FILE_DESCRIPTION (( 'STEP AP203' ),
    '1' );
FILE_NAME ('334883.step',
    '2021-11-15T07:41:50',
    ( '' ),
    ( '' ),
    'SwSTEP 2.0',
    'SolidWorks 2019',
    '' );
FILE_SCHEMA (( 'CONFIG_CONTROL_DESIGN' ));
ENDSEC;

DATA;
#1 =( NAMED_UNIT ( * ) PLANE_ANGLE_UNIT ( ) SI_UNIT ( $, .RADIAN. ) );
#2 = DATE_AND_TIME ( #97, #10 ) ;
#3 = UNCERTAINTY_MEASURE_WITH_UNIT (LENGTH_MEASURE( 1.000000000000000082E-05 ), #60, 'distance_accuracy_value', 'NONE');
#4 = PERSON_AND_ORGANIZATION ( #194, #122 ) ;
#5 = DIRECTION ( 'NONE',  ( 4.275831445896958607E-31, 1.000000000000000000, 1.224646799147353207E-16 ) ) ;
#6 = PERSON_AND_ORGANIZATION ( #194, #122 ) ;
#7 = CC_DESIGN_APPROVAL ( #132, ( #181 ) ) ;
#8 = PLANE ( 'NONE',  #177 ) ;
#9 =( NAMED_UNIT ( * ) SI_UNIT ( $, .STERADIAN. ) SOLID_ANGLE_UNIT ( ) );
#10 = LOCAL_TIME ( 8, 41, 50.00000000000000000, #79 ) ;
#11 = ORIENTED_EDGE ( 'NONE', *, *, #67, .F. ) ;
#12 = EDGE_CURVE ( 'NONE', #227, #227, #170, .T. ) ;
#13 = ORIENTED_EDGE ( 'NONE', *, *, #67, .T. ) ;
#14 = ORIENTED_EDGE ( 'NONE', *, *, #12, .F. ) ;
#15 = CONICAL_SURFACE ( 'NONE', #148, 1.999999999999999556, 0.7853981633974485010 ) ;
#16 = CARTESIAN_POINT ( 'NONE',  ( 3.142333204958818048E-15, 0.0000000000000000000, 0.8999999999999994671 ) ) ;
#17 = FACE_OUTER_BOUND ( 'NONE', #136, .T. ) ;
#18 = PRODUCT_RELATED_PRODUCT_CATEGORY ( 'detail', '', ( #175 ) ) ;
#19 = DIRECTION ( 'NONE',  ( 4.275831445896958607E-31, 1.000000000000000000, 1.224646799147353207E-16 ) ) ;
#20 = AXIS2_PLACEMENT_3D ( 'NONE', #212, #140, #91 ) ;
#21 = CARTESIAN_POINT ( 'NONE',  ( -1.710332578358783092E-30, 0.0000000000000000000, -4.898587196589412829E-16 ) ) ;
#22 = FACE_BOUND ( 'NONE', #197, .T. ) ;
#23 = CARTESIAN_POINT ( 'NONE',  ( 2.000000000000027534, 0.0000000000000000000, 7.880996448798933685 ) ) ;
#24 = SECURITY_CLASSIFICATION_LEVEL ( 'unclassified' ) ;
#25 = APPROVAL_PERSON_ORGANIZATION ( #59, #28, #147 ) ;
#26 = DIRECTION ( 'NONE',  ( 0.0000000000000000000, 0.0000000000000000000, 1.000000000000000000 ) ) ;
#27 = PERSON_AND_ORGANIZATION ( #194, #122 ) ;
#28 = APPROVAL ( #98, 'UNSPECIFIED' ) ;
#29 = DATE_AND_TIME ( #203, #81 ) ;
#30 = DIRECTION ( 'NONE',  ( -3.491481338843133355E-15, 1.224646799147353207E-16, -1.000000000000000000 ) ) ;
#31 = EDGE_LOOP ( 'NONE', ( #11 ) ) ;
#32 = CIRCLE ( 'NONE', #190, 0.2000000000000000944 ) ;
#33 = CC_DESIGN_PERSON_AND_ORGANIZATION_ASSIGNMENT ( #6, #168, ( #215 ) ) ;
#34 = EDGE_LOOP ( 'NONE', ( #70 ) ) ;
#35 = PRODUCT_DEFINITION ( 'UNKNOWN', '', #181, #164 ) ;
#36 = AXIS2_PLACEMENT_3D ( 'NONE', #195, #163, #241 ) ;
#37 = FACE_OUTER_BOUND ( 'NONE', #123, .T. ) ;
#38 = EDGE_LOOP ( 'NONE', ( #14 ) ) ;
#39 = DIRECTION ( 'NONE',  ( 1.000000000000000000, 0.0000000000000000000, -3.491481338843133355E-15 ) ) ;
#40 = CLOSED_SHELL ( 'NONE', ( #243, #76, #144 ) ) ;
#41 = DIRECTION ( 'NONE',  ( -3.491481338843133355E-15, 1.224646799147353207E-16, -1.000000000000000000 ) ) ;
#42 = APPROVAL ( #183, 'UNSPECIFIED' ) ;
#43 = FACE_OUTER_BOUND ( 'NONE', #157, .T. ) ;
#44 = ADVANCED_FACE ( 'NONE', ( #146 ), #124, .F. ) ;
#45 = DATE_AND_TIME ( #185, #105 ) ;
#46 = CC_DESIGN_SECURITY_CLASSIFICATION ( #215, ( #181 ) ) ;
#47 = DIRECTION ( 'NONE',  ( 0.0000000000000000000, 1.000000000000000000, 0.0000000000000000000 ) ) ;
#48 = AXIS2_PLACEMENT_3D ( 'NONE', #202, #171, #192 ) ;
#49 = DIRECTION ( 'NONE',  ( -3.491481338843133355E-15, 1.224646799147353207E-16, -1.000000000000000000 ) ) ;
#50 = PERSON_AND_ORGANIZATION_ROLE ( 'creator' ) ;
#51 = DIRECTION ( 'NONE',  ( 3.491481338843133355E-15, -0.0000000000000000000, 1.000000000000000000 ) ) ;
#52 = DIRECTION ( 'NONE',  ( 1.000000000000000000, 0.0000000000000000000, -3.491481338843133750E-15 ) ) ;
#53 = LOCAL_TIME ( 8, 41, 50.00000000000000000, #230 ) ;
#54 = PLANE ( 'NONE',  #61 ) ;
#55 = DATE_AND_TIME ( #221, #120 ) ;
#56 = DIRECTION ( 'NONE',  ( 4.275831445896958607E-31, 1.000000000000000000, 1.224646799147353207E-16 ) ) ;
#57 = PERSON_AND_ORGANIZATION ( #194, #122 ) ;
#58 = DATE_AND_TIME ( #63, #53 ) ;
#59 = PERSON_AND_ORGANIZATION ( #194, #122 ) ;
#60 =( LENGTH_UNIT ( ) NAMED_UNIT ( * ) SI_UNIT ( .MILLI., .METRE. ) );
#61 = AXIS2_PLACEMENT_3D ( 'NONE', #201, #75, #56 ) ;
#62 = ADVANCED_FACE ( 'NONE', ( #107 ), #160, .F. ) ;
#63 = CALENDAR_DATE ( 2021, 15, 11 ) ;
#64 = AXIS2_PLACEMENT_3D ( 'NONE', #21, #51, #39 ) ;
#65 = APPROVAL_DATE_TIME ( #58, #28 ) ;
#66 = ORIENTED_EDGE ( 'NONE', *, *, #114, .T. ) ;
#67 = EDGE_CURVE ( 'NONE', #118, #118, #32, .T. ) ;
#68 = CIRCLE ( 'NONE', #217, 0.2000000000000000944 ) ;
#69 = ORIENTED_EDGE ( 'NONE', *, *, #12, .T. ) ;
#70 = ORIENTED_EDGE ( 'NONE', *, *, #155, .F. ) ;
#71 = CARTESIAN_POINT ( 'NONE',  ( 1.326762908760390675E-13, -4.653657836759942730E-15, 38.00000000000000711 ) ) ;
#72 = DATE_TIME_ROLE ( 'creation_date' ) ;
#73 = CARTESIAN_POINT ( 'NONE',  ( 1.312796983405018394E-13, -4.604671964794048513E-15, 37.60000000000000853 ) ) ;
#74 = DIRECTION ( 'NONE',  ( 3.491481338843133355E-15, -0.0000000000000000000, 1.000000000000000000 ) ) ;
#75 = DIRECTION ( 'NONE',  ( -3.491481338843133355E-15, 1.224646799147353207E-16, -1.000000000000000000 ) ) ;
#76 = ADVANCED_FACE ( 'NONE', ( #222, #180 ), #238, .T. ) ;
#77 = DIRECTION ( 'NONE',  ( 1.000000000000000000, 0.0000000000000000000, 0.0000000000000000000 ) ) ;
#78 = FACE_OUTER_BOUND ( 'NONE', #232, .T. ) ;
#79 = COORDINATED_UNIVERSAL_TIME_OFFSET ( 1, 0, .AHEAD. ) ;
#80 = VERTEX_POINT ( 'NONE', #151 ) ;
#81 = LOCAL_TIME ( 8, 41, 50.00000000000000000, #128 ) ;
#82 = APPLICATION_CONTEXT ( 'configuration controlled 3d designs of mechanical parts and assemblies' ) ;
#83 = VERTEX_POINT ( 'NONE', #99 ) ;
#84 = CARTESIAN_POINT ( 'NONE',  ( 0.0000000000000000000, 0.0000000000000000000, 0.0000000000000000000 ) ) ;
#85 = CIRCLE ( 'NONE', #48, 0.2681483474218605556 ) ;
#86 = EDGE_LOOP ( 'NONE', ( #100 ) ) ;
#87 = AXIS2_PLACEMENT_3D ( 'NONE', #184, #102, #240 ) ;
#88 = DIRECTION ( 'NONE',  ( 3.491481338843133355E-15, -0.0000000000000000000, 1.000000000000000000 ) ) ;
#89 = ADVANCED_FACE ( 'NONE', ( #17, #214 ), #101, .T. ) ;
#90 = ORIENTED_EDGE ( 'NONE', *, *, #114, .F. ) ;
#91 = DIRECTION ( 'NONE',  ( 1.000000000000000000, 0.0000000000000000000, -3.491481338843133355E-15 ) ) ;
#92 = AXIS2_PLACEMENT_3D ( 'NONE', #191, #30, #5 ) ;
#93 = CC_DESIGN_PERSON_AND_ORGANIZATION_ASSIGNMENT ( #27, #220, ( #181 ) ) ;
#94 = DIRECTION ( 'NONE',  ( -3.491481338843133355E-15, 1.224646799147353207E-16, -1.000000000000000000 ) ) ;
#95 = CARTESIAN_POINT ( 'NONE',  ( 5.357712353295355452E-14, 0.0000000000000000000, 15.34509806393689324 ) ) ;
#96 = APPROVAL_ROLE ( '' ) ;
#97 = CALENDAR_DATE ( 2021, 15, 11 ) ;
#98 = APPROVAL_STATUS ( 'not_yet_approved' ) ;
#99 = CARTESIAN_POINT ( 'NONE',  ( 0.2000000000000032307, 0.0000000000000000000, 0.8999999999999985789 ) ) ;
#100 = ORIENTED_EDGE ( 'NONE', *, *, #155, .T. ) ;
#101 = CONICAL_SURFACE ( 'NONE', #208, 4.000000000000000000, 0.2617993877991428020 ) ;
#102 = DIRECTION ( 'NONE',  ( 3.491481338843133355E-15, -1.224646799147353207E-16, 1.000000000000000000 ) ) ;
#103 = EDGE_LOOP ( 'NONE', ( #13 ) ) ;
#104 = CARTESIAN_POINT ( 'NONE',  ( 3.142333204958817259E-15, 0.0000000000000000000, 0.8999999999999992450 ) ) ;
#105 = LOCAL_TIME ( 8, 41, 50.00000000000000000, #224 ) ;
#106 = PERSON_AND_ORGANIZATION ( #194, #122 ) ;
#107 = FACE_OUTER_BOUND ( 'NONE', #31, .T. ) ;
#108 = EDGE_CURVE ( 'NONE', #80, #80, #228, .T. ) ;
#109 = CARTESIAN_POINT ( 'NONE',  ( 1.312796983405018394E-13, 1.999999999999994893, 37.60000000000000853 ) ) ;
#110 = FACE_OUTER_BOUND ( 'NONE', #86, .T. ) ;
#111 = DATE_TIME_ROLE ( 'classification_date' ) ;
#112 = APPROVAL_PERSON_ORGANIZATION ( #4, #42, #188 ) ;
#113 = APPROVAL_PERSON_ORGANIZATION ( #57, #132, #96 ) ;
#114 = EDGE_CURVE ( 'NONE', #131, #131, #196, .T. ) ;
#115 = CYLINDRICAL_SURFACE ( 'NONE', #92, 2.000000000000000000 ) ;
#116 = ORIENTED_EDGE ( 'NONE', *, *, #229, .T. ) ;
#117 = CC_DESIGN_PERSON_AND_ORGANIZATION_ASSIGNMENT ( #169, #234, ( #175 ) ) ;
#118 = VERTEX_POINT ( 'NONE', #209 ) ;
#119 = ORIENTED_EDGE ( 'NONE', *, *, #108, .F. ) ;
#120 = LOCAL_TIME ( 8, 41, 50.00000000000000000, #145 ) ;
#121 = DIRECTION ( 'NONE',  ( 0.0000000000000000000, 1.000000000000000000, 0.0000000000000000000 ) ) ;
#122 = ORGANIZATION ( 'UNSPECIFIED', 'UNSPECIFIED', '' ) ;
#123 = EDGE_LOOP ( 'NONE', ( #211 ) ) ;
#124 = PLANE ( 'NONE',  #153 ) ;
#125 = CARTESIAN_POINT ( 'NONE',  ( 3.142333204958817259E-15, 0.0000000000000000000, 0.8999999999999992450 ) ) ;
#126 = DIRECTION ( 'NONE',  ( -3.491481338843133355E-15, 1.224646799147353207E-16, -1.000000000000000000 ) ) ;
#127 = VERTEX_POINT ( 'NONE', #109 ) ;
#128 = COORDINATED_UNIVERSAL_TIME_OFFSET ( 1, 0, .AHEAD. ) ;
#129 = EDGE_CURVE ( 'NONE', #83, #83, #68, .T. ) ;
#130 = AXIS2_PLACEMENT_3D ( 'NONE', #71, #94, #178 ) ;
#131 = VERTEX_POINT ( 'NONE', #23 ) ;
#132 = APPROVAL ( #143, 'UNSPECIFIED' ) ;
#133 = CARTESIAN_POINT ( 'NONE',  ( 0.2681483474218654961, 0.0000000000000000000, 1.417638090205027179 ) ) ;
#134 = ORIENTED_EDGE ( 'NONE', *, *, #129, .F. ) ;
#135 = PRODUCT_DEFINITION_SHAPE ( 'NONE', 'NONE',  #35 ) ;
#136 = EDGE_LOOP ( 'NONE', ( #90 ) ) ;
#137 = DIRECTION ( 'NONE',  ( 1.000000000000000000, 0.0000000000000000000, -3.252606517456511724E-15 ) ) ;
#138 = FACE_OUTER_BOUND ( 'NONE', #103, .T. ) ;
#139 = CC_DESIGN_APPROVAL ( #42, ( #215 ) ) ;
#140 = DIRECTION ( 'NONE',  ( 3.491481338843133355E-15, -0.0000000000000000000, 1.000000000000000000 ) ) ;
#141 = APPLICATION_CONTEXT ( 'configuration controlled 3d designs of mechanical parts and assemblies' ) ;
#142 = DIRECTION ( 'NONE',  ( 1.000000000000000000, 0.0000000000000000000, -3.252606517456511724E-15 ) ) ;
#143 = APPROVAL_STATUS ( 'not_yet_approved' ) ;
#144 = ADVANCED_FACE ( 'NONE', ( #219 ), #54, .T. ) ;
#145 = COORDINATED_UNIVERSAL_TIME_OFFSET ( 1, 0, .AHEAD. ) ;
#146 = FACE_OUTER_BOUND ( 'NONE', #176, .T. ) ;
#147 = APPROVAL_ROLE ( '' ) ;
#148 = AXIS2_PLACEMENT_3D ( 'NONE', #73, #49, #47 ) ;
#149 = APPROVAL_DATE_TIME ( #2, #42 ) ;
#150 = DIRECTION ( 'NONE',  ( -4.275831445896958607E-31, -1.000000000000000000, -1.224646799147353207E-16 ) ) ;
#151 = CARTESIAN_POINT ( 'NONE',  ( 1.326762908760390675E-13, 1.599999999999997202, 38.00000000000000711 ) ) ;
#152 = CC_DESIGN_DATE_AND_TIME_ASSIGNMENT ( #45, #111, ( #215 ) ) ;
#153 = AXIS2_PLACEMENT_3D ( 'NONE', #159, #126, #19 ) ;
#154 = ADVANCED_BREP_SHAPE_REPRESENTATION ( '334883', ( #213, #223, #233 ), #167 ) ;
#155 = EDGE_CURVE ( 'NONE', #127, #127, #200, .T. ) ;
#156 = APPLICATION_PROTOCOL_DEFINITION ( 'international standard', 'config_control_design', 1994, #82 ) ;
#157 = EDGE_LOOP ( 'NONE', ( #174 ) ) ;
#158 = CC_DESIGN_DATE_AND_TIME_ASSIGNMENT ( #55, #72, ( #35 ) ) ;
#159 = CARTESIAN_POINT ( 'NONE',  ( 1.326762908760390675E-13, -8.377713426430119900E-31, 38.00000000000000711 ) ) ;
#160 = PLANE ( 'NONE',  #87 ) ;
#161 = TOROIDAL_SURFACE ( 'NONE', #225, 2.200000000000000622, 2.000000000000000000 ) ;
#162 = DIRECTION ( 'NONE',  ( 1.000000000000000000, 0.0000000000000000000, -3.469446951953614189E-15 ) ) ;
#163 = DIRECTION ( 'NONE',  ( 3.491481338843133355E-15, -0.0000000000000000000, 1.000000000000000000 ) ) ;
#164 = DESIGN_CONTEXT ( 'detailed design', #141, 'design' ) ;
#165 = CC_DESIGN_PERSON_AND_ORGANIZATION_ASSIGNMENT ( #106, #242, ( #181 ) ) ;
#166 = MECHANICAL_CONTEXT ( 'NONE', #82, 'mechanical' ) ;
#167 =( GEOMETRIC_REPRESENTATION_CONTEXT ( 3 ) GLOBAL_UNCERTAINTY_ASSIGNED_CONTEXT ( ( #3 ) ) GLOBAL_UNIT_ASSIGNED_CONTEXT ( ( #60, #1, #9 ) ) REPRESENTATION_CONTEXT ( 'NONE', 'WORKASPACE' ) );
#168 = PERSON_AND_ORGANIZATION_ROLE ( 'classification_officer' ) ;
#169 = PERSON_AND_ORGANIZATION ( #194, #122 ) ;
#170 = CIRCLE ( 'NONE', #64, 0.2000000000000000944 ) ;
#171 = DIRECTION ( 'NONE',  ( 3.491481338843133355E-15, -0.0000000000000000000, 1.000000000000000000 ) ) ;
#172 = DIRECTION ( 'NONE',  ( 3.491481338843133355E-15, -1.224646799147353207E-16, 1.000000000000000000 ) ) ;
#173 = ADVANCED_FACE ( 'NONE', ( #138, #37 ), #161, .F. ) ;
#174 = ORIENTED_EDGE ( 'NONE', *, *, #129, .T. ) ;
#175 = PRODUCT ( '334883', '334883', '', ( #166 ) ) ;
#176 = EDGE_LOOP ( 'NONE', ( #119 ) ) ;
#177 = AXIS2_PLACEMENT_3D ( 'NONE', #210, #172, #150 ) ;
#178 = DIRECTION ( 'NONE',  ( 0.0000000000000000000, 1.000000000000000000, 0.0000000000000000000 ) ) ;
#179 = FACE_OUTER_BOUND ( 'NONE', #34, .T. ) ;
#180 = FACE_OUTER_BOUND ( 'NONE', #198, .T. ) ;
#181 = PRODUCT_DEFINITION_FORMATION_WITH_SPECIFIED_SOURCE ( 'ANY', '', #175, .NOT_KNOWN. ) ;
#182 = DIRECTION ( 'NONE',  ( 3.491481338843133355E-15, -0.0000000000000000000, 1.000000000000000000 ) ) ;
#183 = APPROVAL_STATUS ( 'not_yet_approved' ) ;
#184 = CARTESIAN_POINT ( 'NONE',  ( 3.142333204958818836E-15, -9.757819552369536208E-17, 0.8999999999999996891 ) ) ;
#185 = CALENDAR_DATE ( 2021, 15, 11 ) ;
#186 = CARTESIAN_POINT ( 'NONE',  ( 0.2000000000000000944, 0.0000000000000000000, -1.188154987427568250E-15 ) ) ;
#187 = CC_DESIGN_APPROVAL ( #28, ( #35 ) ) ;
#188 = APPROVAL_ROLE ( '' ) ;
#189 = SHAPE_DEFINITION_REPRESENTATION ( #135, #154 ) ;
#190 = AXIS2_PLACEMENT_3D ( 'NONE', #104, #237, #137 ) ;
#191 = CARTESIAN_POINT ( 'NONE',  ( 0.0000000000000000000, 0.0000000000000000000, 0.0000000000000000000 ) ) ;
#192 = DIRECTION ( 'NONE',  ( 1.000000000000000000, 0.0000000000000000000, -3.234633911891461605E-15 ) ) ;
#193 = EDGE_LOOP ( 'NONE', ( #116 ) ) ;
#194 = PERSON ( 'UNSPECIFIED', 'UNSPECIFIED', 'UNSPECIFIED', ('UNSPECIFIED'), ('UNSPECIFIED'), ('UNSPECIFIED') ) ;
#195 = CARTESIAN_POINT ( 'NONE',  ( 2.751635203247050208E-14, 0.0000000000000000000, 7.880996448798939902 ) ) ;
#196 = CIRCLE ( 'NONE', #36, 2.000000000000000000 ) ;
#197 = EDGE_LOOP ( 'NONE', ( #236 ) ) ;
#198 = EDGE_LOOP ( 'NONE', ( #134 ) ) ;
#199 = EDGE_LOOP ( 'NONE', ( #69 ) ) ;
#200 = CIRCLE ( 'NONE', #239, 1.999999999999999556 ) ;
#201 = CARTESIAN_POINT ( 'NONE',  ( -4.275831445896957731E-31, 1.499759782661857608E-32, -1.224646799147353207E-16 ) ) ;
#202 = CARTESIAN_POINT ( 'NONE',  ( 4.949656937184074034E-15, 0.0000000000000000000, 1.417638090205028067 ) ) ;
#203 = CALENDAR_DATE ( 2021, 15, 11 ) ;
#204 = APPLICATION_PROTOCOL_DEFINITION ( 'international standard', 'config_control_design', 1994, #141 ) ;
#205 = APPROVAL_DATE_TIME ( #29, #132 ) ;
#206 = CLOSED_SHELL ( 'NONE', ( #235, #207, #44, #173, #89, #62 ) ) ;
#207 = ADVANCED_FACE ( 'NONE', ( #22, #179 ), #15, .T. ) ;
#208 = AXIS2_PLACEMENT_3D ( 'NONE', #95, #182, #162 ) ;
#209 = CARTESIAN_POINT ( 'NONE',  ( 0.2000000000000032307, 0.0000000000000000000, 0.8999999999999985789 ) ) ;
#210 = CARTESIAN_POINT ( 'NONE',  ( 3.142333204958818836E-15, -9.757819552369536208E-17, 0.8999999999999996891 ) ) ;
#211 = ORIENTED_EDGE ( 'NONE', *, *, #229, .F. ) ;
#212 = CARTESIAN_POINT ( 'NONE',  ( 0.0000000000000000000, 0.0000000000000000000, 0.0000000000000000000 ) ) ;
#213 = MANIFOLD_SOLID_BREP ( 'Corps-Déplacer/Copier1[1]', #206 ) ;
#214 = FACE_BOUND ( 'NONE', #193, .T. ) ;
#215 = SECURITY_CLASSIFICATION ( '', '', #24 ) ;
#216 = PERSON_AND_ORGANIZATION ( #194, #122 ) ;
#217 = AXIS2_PLACEMENT_3D ( 'NONE', #125, #74, #142 ) ;
#218 = CARTESIAN_POINT ( 'NONE',  ( 1.312796983405018394E-13, -4.604671964794048513E-15, 37.60000000000000853 ) ) ;
#219 = FACE_OUTER_BOUND ( 'NONE', #38, .T. ) ;
#220 = PERSON_AND_ORGANIZATION_ROLE ( 'design_supplier' ) ;
#221 = CALENDAR_DATE ( 2021, 15, 11 ) ;
#222 = FACE_OUTER_BOUND ( 'NONE', #199, .T. ) ;
#223 = MANIFOLD_SOLID_BREP ( 'Corps-Déplacer/Copier1[2]', #40 ) ;
#224 = COORDINATED_UNIVERSAL_TIME_OFFSET ( 1, 0, .AHEAD. ) ;
#225 = AXIS2_PLACEMENT_3D ( 'NONE', #16, #88, #52 ) ;
#226 = VERTEX_POINT ( 'NONE', #133 ) ;
#227 = VERTEX_POINT ( 'NONE', #186 ) ;
#228 = CIRCLE ( 'NONE', #130, 1.600000000000001865 ) ;
#229 = EDGE_CURVE ( 'NONE', #226, #226, #85, .T. ) ;
#230 = COORDINATED_UNIVERSAL_TIME_OFFSET ( 1, 0, .AHEAD. ) ;
#231 = CC_DESIGN_PERSON_AND_ORGANIZATION_ASSIGNMENT ( #216, #50, ( #35 ) ) ;
#232 = EDGE_LOOP ( 'NONE', ( #66 ) ) ;
#233 = AXIS2_PLACEMENT_3D ( 'NONE', #84, #26, #77 ) ;
#234 = PERSON_AND_ORGANIZATION_ROLE ( 'design_owner' ) ;
#235 = ADVANCED_FACE ( 'NONE', ( #110, #78 ), #115, .T. ) ;
#236 = ORIENTED_EDGE ( 'NONE', *, *, #108, .T. ) ;
#237 = DIRECTION ( 'NONE',  ( 3.491481338843133355E-15, -0.0000000000000000000, 1.000000000000000000 ) ) ;
#238 = CYLINDRICAL_SURFACE ( 'NONE', #20, 0.2000000000000000944 ) ;
#239 = AXIS2_PLACEMENT_3D ( 'NONE', #218, #41, #121 ) ;
#240 = DIRECTION ( 'NONE',  ( -4.275831445896958607E-31, -1.000000000000000000, -1.224646799147353207E-16 ) ) ;
#241 = DIRECTION ( 'NONE',  ( 1.000000000000000000, 0.0000000000000000000, -3.469446951953614189E-15 ) ) ;
#242 = PERSON_AND_ORGANIZATION_ROLE ( 'creator' ) ;
#243 = ADVANCED_FACE ( 'NONE', ( #43 ), #8, .T. ) ;
ENDSEC;
END-ISO-10303-21;
