ISO-10303-21;
HEADER;
FILE_DESCRIPTION (( 'STEP AP203' ),
    '1' );
FILE_NAME ('334882.step',
    '2021-11-15T07:41:50',
    ( '' ),
    ( '' ),
    'SwSTEP 2.0',
    'SolidWorks 2019',
    '' );
FILE_SCHEMA (( 'CONFIG_CONTROL_DESIGN' ));
ENDSEC;

DATA;
#1 = PRODUCT_DEFINITION_SHAPE ( 'NONE', 'NONE',  #35 ) ;
#2 = APPROVAL_PERSON_ORGANIZATION ( #151, #185, #56 ) ;
#3 = CONICAL_SURFACE ( 'NONE', #27, 4.000000000000000000, 0.2617993877991428020 ) ;
#4 = EDGE_LOOP ( 'NONE', ( #64 ) ) ;
#5 =( LENGTH_UNIT ( ) NAMED_UNIT ( * ) SI_UNIT ( .MILLI., .METRE. ) );
#6 = EDGE_LOOP ( 'NONE', ( #81 ) ) ;
#7 = CIRCLE ( 'NONE', #188, 1.999999999999999556 ) ;
#8 = DIRECTION ( 'NONE',  ( 3.491481338843133355E-15, -0.0000000000000000000, 1.000000000000000000 ) ) ;
#9 = EDGE_CURVE ( 'NONE', #32, #32, #229, .T. ) ;
#10 = FACE_OUTER_BOUND ( 'NONE', #139, .T. ) ;
#11 = COORDINATED_UNIVERSAL_TIME_OFFSET ( 1, 0, .AHEAD. ) ;
#12 = FACE_OUTER_BOUND ( 'NONE', #73, .T. ) ;
#13 = APPLICATION_CONTEXT ( 'configuration controlled 3d designs of mechanical parts and assemblies' ) ;
#14 = VERTEX_POINT ( 'NONE', #163 ) ;
#15 = TOROIDAL_SURFACE ( 'NONE', #192, 2.174999999999999822, 2.000000000000000000 ) ;
#16 = PLANE ( 'NONE',  #222 ) ;
#17 = CYLINDRICAL_SURFACE ( 'NONE', #82, 2.000000000000000000 ) ;
#18 = CALENDAR_DATE ( 2021, 15, 11 ) ;
#19 = DESIGN_CONTEXT ( 'detailed design', #43, 'design' ) ;
#20 = ORIENTED_EDGE ( 'NONE', *, *, #208, .F. ) ;
#21 = CC_DESIGN_PERSON_AND_ORGANIZATION_ASSIGNMENT ( #72, #106, ( #35 ) ) ;
#22 = ORIENTED_EDGE ( 'NONE', *, *, #9, .T. ) ;
#23 = DIRECTION ( 'NONE',  ( -4.275831445896958607E-31, -1.000000000000000000, -1.224646799147353207E-16 ) ) ;
#24 = EDGE_LOOP ( 'NONE', ( #98 ) ) ;
#25 = APPLICATION_PROTOCOL_DEFINITION ( 'international standard', 'config_control_design', 1994, #13 ) ;
#26 = CARTESIAN_POINT ( 'NONE',  ( 0.0000000000000000000, 0.0000000000000000000, 0.0000000000000000000 ) ) ;
#27 = AXIS2_PLACEMENT_3D ( 'NONE', #144, #112, #168 ) ;
#28 = CARTESIAN_POINT ( 'NONE',  ( 0.0000000000000000000, 0.0000000000000000000, 0.0000000000000000000 ) ) ;
#29 = DIRECTION ( 'NONE',  ( 0.0000000000000000000, 1.000000000000000000, 0.0000000000000000000 ) ) ;
#30 = COORDINATED_UNIVERSAL_TIME_OFFSET ( 1, 0, .AHEAD. ) ;
#31 = FACE_OUTER_BOUND ( 'NONE', #120, .T. ) ;
#32 = VERTEX_POINT ( 'NONE', #161 ) ;
#33 = FACE_OUTER_BOUND ( 'NONE', #140, .T. ) ;
#34 = PERSON_AND_ORGANIZATION ( #59, #80 ) ;
#35 = PRODUCT_DEFINITION ( 'UNKNOWN', '', #85, #19 ) ;
#36 = FACE_OUTER_BOUND ( 'NONE', #92, .T. ) ;
#37 = AXIS2_PLACEMENT_3D ( 'NONE', #213, #47, #150 ) ;
#38 = CC_DESIGN_DATE_AND_TIME_ASSIGNMENT ( #216, #50, ( #35 ) ) ;
#39 = ADVANCED_FACE ( 'NONE', ( #87, #12 ), #17, .T. ) ;
#40 = EDGE_LOOP ( 'NONE', ( #209 ) ) ;
#41 = CC_DESIGN_APPROVAL ( #237, ( #85 ) ) ;
#42 = CC_DESIGN_PERSON_AND_ORGANIZATION_ASSIGNMENT ( #221, #203, ( #85 ) ) ;
#43 = APPLICATION_CONTEXT ( 'configuration controlled 3d designs of mechanical parts and assemblies' ) ;
#44 =( GEOMETRIC_REPRESENTATION_CONTEXT ( 3 ) GLOBAL_UNCERTAINTY_ASSIGNED_CONTEXT ( ( #115 ) ) GLOBAL_UNIT_ASSIGNED_CONTEXT ( ( #5, #145, #108 ) ) REPRESENTATION_CONTEXT ( 'NONE', 'WORKASPACE' ) );
#45 = ORIENTED_EDGE ( 'NONE', *, *, #61, .F. ) ;
#46 = DIRECTION ( 'NONE',  ( -3.491481338843133355E-15, 1.224646799147353207E-16, -1.000000000000000000 ) ) ;
#47 = DIRECTION ( 'NONE',  ( 3.491481338843133355E-15, -0.0000000000000000000, 1.000000000000000000 ) ) ;
#48 = PERSON_AND_ORGANIZATION ( #59, #80 ) ;
#49 = DIRECTION ( 'NONE',  ( 0.0000000000000000000, 1.000000000000000000, 0.0000000000000000000 ) ) ;
#50 = DATE_TIME_ROLE ( 'creation_date' ) ;
#51 = PRODUCT ( '334882', '334882', '', ( #104 ) ) ;
#52 = DIRECTION ( 'NONE',  ( 1.000000000000000000, 0.0000000000000000000, -3.491481338843133355E-15 ) ) ;
#53 = DIRECTION ( 'NONE',  ( 3.491481338843133355E-15, -0.0000000000000000000, 1.000000000000000000 ) ) ;
#54 = PERSON_AND_ORGANIZATION_ROLE ( 'classification_officer' ) ;
#55 = CARTESIAN_POINT ( 'NONE',  ( 2.793185071074504318E-15, 0.0000000000000000000, 0.7999999999999992673 ) ) ;
#56 = APPROVAL_ROLE ( '' ) ;
#57 = DATE_AND_TIME ( #18, #220 ) ;
#58 = SECURITY_CLASSIFICATION_LEVEL ( 'unclassified' ) ;
#59 = PERSON ( 'UNSPECIFIED', 'UNSPECIFIED', 'UNSPECIFIED', ('UNSPECIFIED'), ('UNSPECIFIED'), ('UNSPECIFIED') ) ;
#60 = AXIS2_PLACEMENT_3D ( 'NONE', #66, #173, #23 ) ;
#61 = EDGE_CURVE ( 'NONE', #122, #122, #128, .T. ) ;
#62 = EDGE_LOOP ( 'NONE', ( #156 ) ) ;
#63 = VERTEX_POINT ( 'NONE', #126 ) ;
#64 = ORIENTED_EDGE ( 'NONE', *, *, #116, .F. ) ;
#65 = DATE_AND_TIME ( #197, #207 ) ;
#66 = CARTESIAN_POINT ( 'NONE',  ( 2.793185071074506290E-15, -8.673617379884033007E-17, 0.7999999999999998224 ) ) ;
#67 = APPROVAL ( #84, 'UNSPECIFIED' ) ;
#68 = ORIENTED_EDGE ( 'NONE', *, *, #208, .T. ) ;
#69 = CARTESIAN_POINT ( 'NONE',  ( 0.1750000000000025979, 0.0000000000000000000, 0.7999999999999986011 ) ) ;
#70 = CARTESIAN_POINT ( 'NONE',  ( 0.0000000000000000000, 0.0000000000000000000, 0.0000000000000000000 ) ) ;
#71 = LOCAL_TIME ( 8, 41, 50.00000000000000000, #153 ) ;
#72 = PERSON_AND_ORGANIZATION ( #59, #80 ) ;
#73 = EDGE_LOOP ( 'NONE', ( #68 ) ) ;
#74 = APPROVAL_DATE_TIME ( #242, #237 ) ;
#75 = DIRECTION ( 'NONE',  ( -3.491481338843133355E-15, 1.224646799147353207E-16, -1.000000000000000000 ) ) ;
#76 = DIRECTION ( 'NONE',  ( 3.491481338843133355E-15, -0.0000000000000000000, 1.000000000000000000 ) ) ;
#77 = CIRCLE ( 'NONE', #37, 2.000000000000000000 ) ;
#78 = CALENDAR_DATE ( 2021, 15, 11 ) ;
#79 = ADVANCED_FACE ( 'NONE', ( #142, #178 ), #15, .F. ) ;
#80 = ORGANIZATION ( 'UNSPECIFIED', 'UNSPECIFIED', '' ) ;
#81 = ORIENTED_EDGE ( 'NONE', *, *, #61, .T. ) ;
#82 = AXIS2_PLACEMENT_3D ( 'NONE', #70, #125, #131 ) ;
#83 = EDGE_LOOP ( 'NONE', ( #22 ) ) ;
#84 = APPROVAL_STATUS ( 'not_yet_approved' ) ;
#85 = PRODUCT_DEFINITION_FORMATION_WITH_SPECIFIED_SOURCE ( 'ANY', '', #51, .NOT_KNOWN. ) ;
#86 = DIRECTION ( 'NONE',  ( 1.000000000000000000, 0.0000000000000000000, -3.567212145117071145E-15 ) ) ;
#87 = FACE_OUTER_BOUND ( 'NONE', #62, .T. ) ;
#88 = PLANE ( 'NONE',  #60 ) ;
#89 = DIRECTION ( 'NONE',  ( -3.491481338843133355E-15, 1.224646799147353207E-16, -1.000000000000000000 ) ) ;
#90 = CIRCLE ( 'NONE', #154, 1.600000000000001865 ) ;
#91 = VERTEX_POINT ( 'NONE', #166 ) ;
#92 = EDGE_LOOP ( 'NONE', ( #20 ) ) ;
#93 = CC_DESIGN_DATE_AND_TIME_ASSIGNMENT ( #57, #241, ( #103 ) ) ;
#94 = ADVANCED_FACE ( 'NONE', ( #31 ), #200, .F. ) ;
#95 = APPROVAL_DATE_TIME ( #111, #185 ) ;
#96 = AXIS2_PLACEMENT_3D ( 'NONE', #201, #233, #231 ) ;
#97 = CLOSED_SHELL ( 'NONE', ( #243, #136, #152 ) ) ;
#98 = ORIENTED_EDGE ( 'NONE', *, *, #116, .T. ) ;
#99 = PRODUCT_RELATED_PRODUCT_CATEGORY ( 'detail', '', ( #51 ) ) ;
#100 = PERSON_AND_ORGANIZATION ( #59, #80 ) ;
#101 = VERTEX_POINT ( 'NONE', #69 ) ;
#102 = DIRECTION ( 'NONE',  ( 1.000000000000000000, 0.0000000000000000000, -3.717264591378875951E-15 ) ) ;
#103 = SECURITY_CLASSIFICATION ( '', '', #58 ) ;
#104 = MECHANICAL_CONTEXT ( 'NONE', #13, 'mechanical' ) ;
#105 = ORIENTED_EDGE ( 'NONE', *, *, #155, .F. ) ;
#106 = PERSON_AND_ORGANIZATION_ROLE ( 'creator' ) ;
#107 = FACE_BOUND ( 'NONE', #24, .T. ) ;
#108 =( NAMED_UNIT ( * ) SI_UNIT ( $, .STERADIAN. ) SOLID_ANGLE_UNIT ( ) );
#109 = DIRECTION ( 'NONE',  ( -3.491481338843133355E-15, 1.224646799147353207E-16, -1.000000000000000000 ) ) ;
#110 = LOCAL_TIME ( 8, 41, 50.00000000000000000, #11 ) ;
#111 = DATE_AND_TIME ( #78, #190 ) ;
#112 = DIRECTION ( 'NONE',  ( 3.491481338843133355E-15, -0.0000000000000000000, 1.000000000000000000 ) ) ;
#113 = COORDINATED_UNIVERSAL_TIME_OFFSET ( 1, 0, .AHEAD. ) ;
#114 = AXIS2_PLACEMENT_3D ( 'NONE', #204, #76, #86 ) ;
#115 = UNCERTAINTY_MEASURE_WITH_UNIT (LENGTH_MEASURE( 1.000000000000000082E-05 ), #5, 'distance_accuracy_value', 'NONE');
#116 = EDGE_CURVE ( 'NONE', #159, #159, #90, .T. ) ;
#117 = CIRCLE ( 'NONE', #121, 0.1749999999999998224 ) ;
#118 = EDGE_LOOP ( 'NONE', ( #137 ) ) ;
#119 = ADVANCED_FACE ( 'NONE', ( #107, #33 ), #165, .T. ) ;
#120 = EDGE_LOOP ( 'NONE', ( #226 ) ) ;
#121 = AXIS2_PLACEMENT_3D ( 'NONE', #55, #133, #219 ) ;
#122 = VERTEX_POINT ( 'NONE', #211 ) ;
#123 = ADVANCED_FACE ( 'NONE', ( #176 ), #16, .F. ) ;
#124 = EDGE_LOOP ( 'NONE', ( #236 ) ) ;
#125 = DIRECTION ( 'NONE',  ( -3.491481338843133355E-15, 1.224646799147353207E-16, -1.000000000000000000 ) ) ;
#126 = CARTESIAN_POINT ( 'NONE',  ( 0.2431483474218644469, 0.0000000000000000000, 1.317638090205027313 ) ) ;
#127 = DIRECTION ( 'NONE',  ( 0.0000000000000000000, 1.000000000000000000, 0.0000000000000000000 ) ) ;
#128 = CIRCLE ( 'NONE', #214, 0.1749999999999998224 ) ;
#129 = CARTESIAN_POINT ( 'NONE',  ( 1.312796983405018394E-13, -4.604671964794048513E-15, 37.60000000000000853 ) ) ;
#130 = PERSON_AND_ORGANIZATION ( #59, #80 ) ;
#131 = DIRECTION ( 'NONE',  ( 4.275831445896958607E-31, 1.000000000000000000, 1.224646799147353207E-16 ) ) ;
#132 = PLANE ( 'NONE',  #96 ) ;
#133 = DIRECTION ( 'NONE',  ( 3.491481338843133355E-15, -0.0000000000000000000, 1.000000000000000000 ) ) ;
#134 = SHAPE_DEFINITION_REPRESENTATION ( #1, #169 ) ;
#135 = AXIS2_PLACEMENT_3D ( 'NONE', #215, #8, #102 ) ;
#136 = ADVANCED_FACE ( 'NONE', ( #194, #196 ), #218, .T. ) ;
#137 = ORIENTED_EDGE ( 'NONE', *, *, #227, .T. ) ;
#138 = MANIFOLD_SOLID_BREP ( 'Corps-Déplacer/Copier1[2]', #97 ) ;
#139 = EDGE_LOOP ( 'NONE', ( #45 ) ) ;
#140 = EDGE_LOOP ( 'NONE', ( #105 ) ) ;
#141 = APPROVAL_ROLE ( '' ) ;
#142 = FACE_OUTER_BOUND ( 'NONE', #118, .T. ) ;
#143 = DIRECTION ( 'NONE',  ( 1.000000000000000000, 0.0000000000000000000, 0.0000000000000000000 ) ) ;
#144 = CARTESIAN_POINT ( 'NONE',  ( 5.355373504282529516E-14, 0.0000000000000000000, 15.33839933412612133 ) ) ;
#145 =( NAMED_UNIT ( * ) PLANE_ANGLE_UNIT ( ) SI_UNIT ( $, .RADIAN. ) );
#146 = ORIENTED_EDGE ( 'NONE', *, *, #9, .F. ) ;
#147 = CALENDAR_DATE ( 2021, 15, 11 ) ;
#148 = DIRECTION ( 'NONE',  ( 3.491481338843133355E-15, -0.0000000000000000000, 1.000000000000000000 ) ) ;
#149 = CARTESIAN_POINT ( 'NONE',  ( 1.326762908760390675E-13, -8.377713426430119900E-31, 38.00000000000000711 ) ) ;
#150 = DIRECTION ( 'NONE',  ( 1.000000000000000000, 0.0000000000000000000, -3.469446951953614189E-15 ) ) ;
#151 = PERSON_AND_ORGANIZATION ( #59, #80 ) ;
#152 = ADVANCED_FACE ( 'NONE', ( #10 ), #132, .T. ) ;
#153 = COORDINATED_UNIVERSAL_TIME_OFFSET ( 1, 0, .AHEAD. ) ;
#154 = AXIS2_PLACEMENT_3D ( 'NONE', #184, #75, #49 ) ;
#155 = EDGE_CURVE ( 'NONE', #14, #14, #7, .T. ) ;
#156 = ORIENTED_EDGE ( 'NONE', *, *, #155, .T. ) ;
#157 = PERSON_AND_ORGANIZATION_ROLE ( 'design_owner' ) ;
#158 = CIRCLE ( 'NONE', #114, 0.2431483474218598395 ) ;
#159 = VERTEX_POINT ( 'NONE', #181 ) ;
#160 = DIRECTION ( 'NONE',  ( 1.000000000000000000, 0.0000000000000000000, -3.491481338843132961E-15 ) ) ;
#161 = CARTESIAN_POINT ( 'NONE',  ( 0.1750000000000025979, 0.0000000000000000000, 0.7999999999999986011 ) ) ;
#162 = CARTESIAN_POINT ( 'NONE',  ( 2.793185071074506290E-15, -8.673617379884033007E-17, 0.7999999999999998224 ) ) ;
#163 = CARTESIAN_POINT ( 'NONE',  ( 1.312796983405018394E-13, 1.999999999999994893, 37.60000000000000853 ) ) ;
#164 = FACE_BOUND ( 'NONE', #40, .T. ) ;
#165 = CONICAL_SURFACE ( 'NONE', #191, 1.999999999999999556, 0.7853981633974485010 ) ;
#166 = CARTESIAN_POINT ( 'NONE',  ( 2.000000000000027534, 0.0000000000000000000, 7.874297718988162664 ) ) ;
#167 = DIRECTION ( 'NONE',  ( 4.275831445896958607E-31, 1.000000000000000000, 1.224646799147353207E-16 ) ) ;
#168 = DIRECTION ( 'NONE',  ( 1.000000000000000000, 0.0000000000000000000, -3.469446951953614189E-15 ) ) ;
#169 = ADVANCED_BREP_SHAPE_REPRESENTATION ( '334882', ( #223, #138, #183 ), #44 ) ;
#170 = CC_DESIGN_APPROVAL ( #185, ( #103 ) ) ;
#171 = APPROVAL_PERSON_ORGANIZATION ( #100, #67, #234 ) ;
#172 = AXIS2_PLACEMENT_3D ( 'NONE', #26, #53, #160 ) ;
#173 = DIRECTION ( 'NONE',  ( 3.491481338843133355E-15, -1.224646799147353207E-16, 1.000000000000000000 ) ) ;
#174 = ADVANCED_FACE ( 'NONE', ( #36, #164 ), #3, .T. ) ;
#175 = AXIS2_PLACEMENT_3D ( 'NONE', #162, #217, #212 ) ;
#176 = FACE_OUTER_BOUND ( 'NONE', #4, .T. ) ;
#177 = DIRECTION ( 'NONE',  ( 0.0000000000000000000, 0.0000000000000000000, 1.000000000000000000 ) ) ;
#178 = FACE_OUTER_BOUND ( 'NONE', #124, .T. ) ;
#179 = APPROVAL_DATE_TIME ( #65, #67 ) ;
#180 = CARTESIAN_POINT ( 'NONE',  ( 1.312796983405018394E-13, -4.604671964794048513E-15, 37.60000000000000853 ) ) ;
#181 = CARTESIAN_POINT ( 'NONE',  ( 1.326762908760390675E-13, 1.599999999999997202, 38.00000000000000711 ) ) ;
#182 = CARTESIAN_POINT ( 'NONE',  ( -1.710332578358783092E-30, 0.0000000000000000000, -4.898587196589412829E-16 ) ) ;
#183 = AXIS2_PLACEMENT_3D ( 'NONE', #28, #177, #143 ) ;
#184 = CARTESIAN_POINT ( 'NONE',  ( 1.326762908760390675E-13, -4.653657836759942730E-15, 38.00000000000000711 ) ) ;
#185 = APPROVAL ( #187, 'UNSPECIFIED' ) ;
#186 = PERSON_AND_ORGANIZATION ( #59, #80 ) ;
#187 = APPROVAL_STATUS ( 'not_yet_approved' ) ;
#188 = AXIS2_PLACEMENT_3D ( 'NONE', #129, #89, #29 ) ;
#189 = CALENDAR_DATE ( 2021, 15, 11 ) ;
#190 = LOCAL_TIME ( 8, 41, 50.00000000000000000, #113 ) ;
#191 = AXIS2_PLACEMENT_3D ( 'NONE', #180, #109, #127 ) ;
#192 = AXIS2_PLACEMENT_3D ( 'NONE', #238, #239, #52 ) ;
#193 = APPLICATION_PROTOCOL_DEFINITION ( 'international standard', 'config_control_design', 1994, #43 ) ;
#194 = FACE_OUTER_BOUND ( 'NONE', #6, .T. ) ;
#195 = APPROVAL_PERSON_ORGANIZATION ( #130, #237, #141 ) ;
#196 = FACE_OUTER_BOUND ( 'NONE', #225, .T. ) ;
#197 = CALENDAR_DATE ( 2021, 15, 11 ) ;
#198 = DIRECTION ( 'NONE',  ( 1.000000000000000000, 0.0000000000000000000, -3.491481338843132566E-15 ) ) ;
#199 = APPROVAL_STATUS ( 'not_yet_approved' ) ;
#200 = PLANE ( 'NONE',  #175 ) ;
#201 = CARTESIAN_POINT ( 'NONE',  ( -4.275831445896957731E-31, 1.499759782661857608E-32, -1.224646799147353207E-16 ) ) ;
#202 = CLOSED_SHELL ( 'NONE', ( #39, #119, #123, #79, #174, #94 ) ) ;
#203 = PERSON_AND_ORGANIZATION_ROLE ( 'creator' ) ;
#204 = CARTESIAN_POINT ( 'NONE',  ( 4.600508803299760698E-15, 0.0000000000000000000, 1.317638090205028201 ) ) ;
#205 = PERSON_AND_ORGANIZATION_ROLE ( 'design_supplier' ) ;
#206 = COORDINATED_UNIVERSAL_TIME_OFFSET ( 1, 0, .AHEAD. ) ;
#207 = LOCAL_TIME ( 8, 41, 50.00000000000000000, #30 ) ;
#208 = EDGE_CURVE ( 'NONE', #91, #91, #77, .T. ) ;
#209 = ORIENTED_EDGE ( 'NONE', *, *, #232, .T. ) ;
#210 = CC_DESIGN_APPROVAL ( #67, ( #35 ) ) ;
#211 = CARTESIAN_POINT ( 'NONE',  ( 0.1749999999999998224, 0.0000000000000000000, -1.100867953956488733E-15 ) ) ;
#212 = DIRECTION ( 'NONE',  ( -4.275831445896958607E-31, -1.000000000000000000, -1.224646799147353207E-16 ) ) ;
#213 = CARTESIAN_POINT ( 'NONE',  ( 2.749296354234224587E-14, 0.0000000000000000000, 7.874297718988169770 ) ) ;
#214 = AXIS2_PLACEMENT_3D ( 'NONE', #182, #148, #198 ) ;
#215 = CARTESIAN_POINT ( 'NONE',  ( 2.793185071074504318E-15, 0.0000000000000000000, 0.7999999999999992673 ) ) ;
#216 = DATE_AND_TIME ( #147, #110 ) ;
#217 = DIRECTION ( 'NONE',  ( 3.491481338843133355E-15, -1.224646799147353207E-16, 1.000000000000000000 ) ) ;
#218 = CYLINDRICAL_SURFACE ( 'NONE', #172, 0.1749999999999998224 ) ;
#219 = DIRECTION ( 'NONE',  ( 1.000000000000000000, 0.0000000000000000000, -3.717264591378875951E-15 ) ) ;
#220 = LOCAL_TIME ( 8, 41, 50.00000000000000000, #206 ) ;
#221 = PERSON_AND_ORGANIZATION ( #59, #80 ) ;
#222 = AXIS2_PLACEMENT_3D ( 'NONE', #149, #46, #167 ) ;
#223 = MANIFOLD_SOLID_BREP ( 'Corps-Déplacer/Copier1[1]', #202 ) ;
#224 = CC_DESIGN_PERSON_AND_ORGANIZATION_ASSIGNMENT ( #34, #205, ( #85 ) ) ;
#225 = EDGE_LOOP ( 'NONE', ( #146 ) ) ;
#226 = ORIENTED_EDGE ( 'NONE', *, *, #227, .F. ) ;
#227 = EDGE_CURVE ( 'NONE', #101, #101, #117, .T. ) ;
#228 = CC_DESIGN_PERSON_AND_ORGANIZATION_ASSIGNMENT ( #48, #157, ( #51 ) ) ;
#229 = CIRCLE ( 'NONE', #135, 0.1749999999999998224 ) ;
#230 = FACE_OUTER_BOUND ( 'NONE', #83, .T. ) ;
#231 = DIRECTION ( 'NONE',  ( 4.275831445896958607E-31, 1.000000000000000000, 1.224646799147353207E-16 ) ) ;
#232 = EDGE_CURVE ( 'NONE', #63, #63, #158, .T. ) ;
#233 = DIRECTION ( 'NONE',  ( -3.491481338843133355E-15, 1.224646799147353207E-16, -1.000000000000000000 ) ) ;
#234 = APPROVAL_ROLE ( '' ) ;
#235 = CC_DESIGN_SECURITY_CLASSIFICATION ( #103, ( #85 ) ) ;
#236 = ORIENTED_EDGE ( 'NONE', *, *, #232, .F. ) ;
#237 = APPROVAL ( #199, 'UNSPECIFIED' ) ;
#238 = CARTESIAN_POINT ( 'NONE',  ( 2.793185071074505107E-15, 0.0000000000000000000, 0.7999999999999994893 ) ) ;
#239 = DIRECTION ( 'NONE',  ( 3.491481338843133355E-15, -0.0000000000000000000, 1.000000000000000000 ) ) ;
#240 = CC_DESIGN_PERSON_AND_ORGANIZATION_ASSIGNMENT ( #186, #54, ( #103 ) ) ;
#241 = DATE_TIME_ROLE ( 'classification_date' ) ;
#242 = DATE_AND_TIME ( #189, #71 ) ;
#243 = ADVANCED_FACE ( 'NONE', ( #230 ), #88, .T. ) ;
ENDSEC;
END-ISO-10303-21;
