ISO-10303-21;
HEADER;
FILE_DESCRIPTION (( 'STEP AP203' ),
    '1' );
FILE_NAME ('334881.step',
    '2021-11-15T07:41:49',
    ( '' ),
    ( '' ),
    'SwSTEP 2.0',
    'SolidWorks 2019',
    '' );
FILE_SCHEMA (( 'CONFIG_CONTROL_DESIGN' ));
ENDSEC;

DATA;
#1 = FACE_OUTER_BOUND ( 'NONE', #144, .T. ) ;
#2 = LOCAL_TIME ( 8, 41, 49.00000000000000000, #97 ) ;
#3 = DIRECTION ( 'NONE',  ( 3.491481338843133355E-15, -0.0000000000000000000, 1.000000000000000000 ) ) ;
#4 = AXIS2_PLACEMENT_3D ( 'NONE', #67, #17, #168 ) ;
#5 = CARTESIAN_POINT ( 'NONE',  ( 1.326762908760390675E-13, 1.599999999999997202, 38.00000000000000711 ) ) ;
#6 = DIRECTION ( 'NONE',  ( 3.491481338843133355E-15, -1.224646799147353207E-16, 1.000000000000000000 ) ) ;
#7 = EDGE_CURVE ( 'NONE', #37, #37, #64, .T. ) ;
#8 = VERTEX_POINT ( 'NONE', #191 ) ;
#9 = DATE_TIME_ROLE ( 'creation_date' ) ;
#10 = CIRCLE ( 'NONE', #4, 0.1499999999999999667 ) ;
#11 = AXIS2_PLACEMENT_3D ( 'NONE', #32, #127, #107 ) ;
#12 = PERSON_AND_ORGANIZATION_ROLE ( 'classification_officer' ) ;
#13 = ORIENTED_EDGE ( 'NONE', *, *, #169, .T. ) ;
#14 = CARTESIAN_POINT ( 'NONE',  ( 2.444036937190191377E-15, 0.0000000000000000000, 0.6999999999999994005 ) ) ;
#15 = APPROVAL_PERSON_ORGANIZATION ( #218, #71, #26 ) ;
#16 = DIRECTION ( 'NONE',  ( 4.275831445896958607E-31, 1.000000000000000000, 1.224646799147353207E-16 ) ) ;
#17 = DIRECTION ( 'NONE',  ( 3.491481338843133355E-15, -0.0000000000000000000, 1.000000000000000000 ) ) ;
#18 = CARTESIAN_POINT ( 'NONE',  ( 4.251360669415448941E-15, 0.0000000000000000000, 1.217638090205028334 ) ) ;
#19 = CLOSED_SHELL ( 'NONE', ( #238, #146, #94 ) ) ;
#20 = APPROVAL ( #114, 'UNSPECIFIED' ) ;
#21 = PERSON_AND_ORGANIZATION_ROLE ( 'design_owner' ) ;
#22 = AXIS2_PLACEMENT_3D ( 'NONE', #152, #209, #134 ) ;
#23 = APPROVAL_ROLE ( '' ) ;
#24 = PLANE ( 'NONE',  #22 ) ;
#25 = CIRCLE ( 'NONE', #112, 0.1499999999999999667 ) ;
#26 = APPROVAL_ROLE ( '' ) ;
#27 = ORIENTED_EDGE ( 'NONE', *, *, #116, .T. ) ;
#28 = PERSON_AND_ORGANIZATION ( #241, #87 ) ;
#29 = DIRECTION ( 'NONE',  ( -3.491481338843133355E-15, 1.224646799147353207E-16, -1.000000000000000000 ) ) ;
#30 = DIRECTION ( 'NONE',  ( 1.000000000000000000, 0.0000000000000000000, -3.614007241618349165E-15 ) ) ;
#31 = LOCAL_TIME ( 8, 41, 49.00000000000000000, #79 ) ;
#32 = CARTESIAN_POINT ( 'NONE',  ( 2.444036937190192165E-15, 0.0000000000000000000, 0.6999999999999996225 ) ) ;
#33 = ORIENTED_EDGE ( 'NONE', *, *, #7, .T. ) ;
#34 = EDGE_LOOP ( 'NONE', ( #42 ) ) ;
#35 = CIRCLE ( 'NONE', #92, 2.000000000000000000 ) ;
#36 = CARTESIAN_POINT ( 'NONE',  ( 1.312796983405018394E-13, -4.604671964794048513E-15, 37.60000000000000853 ) ) ;
#37 = VERTEX_POINT ( 'NONE', #131 ) ;
#38 = CARTESIAN_POINT ( 'NONE',  ( 2.444036937190192560E-15, -7.589415207398528573E-17, 0.6999999999999997335 ) ) ;
#39 = CARTESIAN_POINT ( 'NONE',  ( 0.1500000000000024092, 0.0000000000000000000, 0.6999999999999989564 ) ) ;
#40 = DATE_AND_TIME ( #137, #31 ) ;
#41 = EDGE_CURVE ( 'NONE', #8, #8, #80, .T. ) ;
#42 = ORIENTED_EDGE ( 'NONE', *, *, #91, .T. ) ;
#43 = DATE_AND_TIME ( #101, #235 ) ;
#44 = EDGE_LOOP ( 'NONE', ( #199 ) ) ;
#45 = EDGE_LOOP ( 'NONE', ( #219 ) ) ;
#46 = CARTESIAN_POINT ( 'NONE',  ( 1.312796983405018394E-13, -4.604671964794048513E-15, 37.60000000000000853 ) ) ;
#47 = CIRCLE ( 'NONE', #192, 0.2181483474218599838 ) ;
#48 = FACE_OUTER_BOUND ( 'NONE', #216, .T. ) ;
#49 = CARTESIAN_POINT ( 'NONE',  ( 1.326762908760390675E-13, -8.377713426430119900E-31, 38.00000000000000711 ) ) ;
#50 = APPLICATION_CONTEXT ( 'configuration controlled 3d designs of mechanical parts and assemblies' ) ;
#51 = DESIGN_CONTEXT ( 'detailed design', #50, 'design' ) ;
#52 = DIRECTION ( 'NONE',  ( 3.491481338843133355E-15, -0.0000000000000000000, 1.000000000000000000 ) ) ;
#53 =( LENGTH_UNIT ( ) NAMED_UNIT ( * ) SI_UNIT ( .MILLI., .METRE. ) );
#54 = PRODUCT_DEFINITION ( 'UNKNOWN', '', #133, #51 ) ;
#55 = VERTEX_POINT ( 'NONE', #231 ) ;
#56 = VERTEX_POINT ( 'NONE', #110 ) ;
#57 = LOCAL_TIME ( 8, 41, 49.00000000000000000, #138 ) ;
#58 = VERTEX_POINT ( 'NONE', #5 ) ;
#59 = ORIENTED_EDGE ( 'NONE', *, *, #41, .T. ) ;
#60 = APPROVAL_STATUS ( 'not_yet_approved' ) ;
#61 = CALENDAR_DATE ( 2021, 15, 11 ) ;
#62 = ORIENTED_EDGE ( 'NONE', *, *, #7, .F. ) ;
#63 = APPROVAL_ROLE ( '' ) ;
#64 = CIRCLE ( 'NONE', #99, 0.1499999999999999667 ) ;
#65 = AXIS2_PLACEMENT_3D ( 'NONE', #205, #29, #76 ) ;
#66 = DIRECTION ( 'NONE',  ( 1.000000000000000000, 0.0000000000000000000, -3.469446951953614189E-15 ) ) ;
#67 = CARTESIAN_POINT ( 'NONE',  ( -1.710332578358783092E-30, 0.0000000000000000000, -4.898587196589412829E-16 ) ) ;
#68 = DIRECTION ( 'NONE',  ( -3.491481338843133355E-15, 1.224646799147353207E-16, -1.000000000000000000 ) ) ;
#69 = CONICAL_SURFACE ( 'NONE', #208, 1.999999999999999556, 0.7853981633974485010 ) ;
#70 = PLANE ( 'NONE',  #153 ) ;
#71 = APPROVAL ( #60, 'UNSPECIFIED' ) ;
#72 = FACE_OUTER_BOUND ( 'NONE', #105, .T. ) ;
#73 =( NAMED_UNIT ( * ) SI_UNIT ( $, .STERADIAN. ) SOLID_ANGLE_UNIT ( ) );
#74 = TOROIDAL_SURFACE ( 'NONE', #11, 2.149999999999999911, 2.000000000000000000 ) ;
#75 = DIRECTION ( 'NONE',  ( -4.275831445896958607E-31, -1.000000000000000000, -1.224646799147353207E-16 ) ) ;
#76 = DIRECTION ( 'NONE',  ( 4.275831445896958607E-31, 1.000000000000000000, 1.224646799147353207E-16 ) ) ;
#77 = CC_DESIGN_PERSON_AND_ORGANIZATION_ASSIGNMENT ( #211, #21, ( #85 ) ) ;
#78 = DATE_AND_TIME ( #61, #57 ) ;
#79 = COORDINATED_UNIVERSAL_TIME_OFFSET ( 1, 0, .AHEAD. ) ;
#80 = CIRCLE ( 'NONE', #129, 1.999999999999999556 ) ;
#81 = CC_DESIGN_APPROVAL ( #20, ( #54 ) ) ;
#82 = PRODUCT_DEFINITION_SHAPE ( 'NONE', 'NONE',  #54 ) ;
#83 = PERSON_AND_ORGANIZATION_ROLE ( 'creator' ) ;
#84 = ORIENTED_EDGE ( 'NONE', *, *, #135, .T. ) ;
#85 = PRODUCT ( '334881', '334881', '', ( #132 ) ) ;
#86 = DIRECTION ( 'NONE',  ( -3.491481338843133355E-15, 1.224646799147353207E-16, -1.000000000000000000 ) ) ;
#87 = ORGANIZATION ( 'UNSPECIFIED', 'UNSPECIFIED', '' ) ;
#88 = CYLINDRICAL_SURFACE ( 'NONE', #124, 0.1499999999999999667 ) ;
#89 = CARTESIAN_POINT ( 'NONE',  ( 1.326762908760390675E-13, -4.653657836759942730E-15, 38.00000000000000711 ) ) ;
#90 = DIRECTION ( 'NONE',  ( 3.491481338843133355E-15, -0.0000000000000000000, 1.000000000000000000 ) ) ;
#91 = EDGE_CURVE ( 'NONE', #193, #193, #25, .T. ) ;
#92 = AXIS2_PLACEMENT_3D ( 'NONE', #170, #240, #66 ) ;
#93 = EDGE_LOOP ( 'NONE', ( #13 ) ) ;
#94 = ADVANCED_FACE ( 'NONE', ( #202 ), #70, .T. ) ;
#95 = CC_DESIGN_APPROVAL ( #117, ( #133 ) ) ;
#96 = APPLICATION_PROTOCOL_DEFINITION ( 'international standard', 'config_control_design', 1994, #213 ) ;
#97 = COORDINATED_UNIVERSAL_TIME_OFFSET ( 1, 0, .AHEAD. ) ;
#98 =( NAMED_UNIT ( * ) PLANE_ANGLE_UNIT ( ) SI_UNIT ( $, .RADIAN. ) );
#99 = AXIS2_PLACEMENT_3D ( 'NONE', #173, #225, #30 ) ;
#100 = APPROVAL_PERSON_ORGANIZATION ( #142, #117, #63 ) ;
#101 = CALENDAR_DATE ( 2021, 15, 11 ) ;
#102 = COORDINATED_UNIVERSAL_TIME_OFFSET ( 1, 0, .AHEAD. ) ;
#103 = EDGE_LOOP ( 'NONE', ( #120 ) ) ;
#104 = EDGE_CURVE ( 'NONE', #56, #56, #10, .T. ) ;
#105 = EDGE_LOOP ( 'NONE', ( #33 ) ) ;
#106 = DIRECTION ( 'NONE',  ( -3.491481338843133355E-15, 1.224646799147353207E-16, -1.000000000000000000 ) ) ;
#107 = DIRECTION ( 'NONE',  ( 1.000000000000000000, 0.0000000000000000000, -3.491481338843133355E-15 ) ) ;
#108 = DIRECTION ( 'NONE',  ( 1.000000000000000000, 0.0000000000000000000, -3.491481338843132961E-15 ) ) ;
#109 = FACE_OUTER_BOUND ( 'NONE', #34, .T. ) ;
#110 = CARTESIAN_POINT ( 'NONE',  ( 0.1499999999999999667, 0.0000000000000000000, -1.013580920485411188E-15 ) ) ;
#111 = ADVANCED_BREP_SHAPE_REPRESENTATION ( '334881', ( #136, #217, #140 ), #212 ) ;
#112 = AXIS2_PLACEMENT_3D ( 'NONE', #14, #3, #167 ) ;
#113 = AXIS2_PLACEMENT_3D ( 'NONE', #230, #52, #203 ) ;
#114 = APPROVAL_STATUS ( 'not_yet_approved' ) ;
#115 = CARTESIAN_POINT ( 'NONE',  ( 0.0000000000000000000, 0.0000000000000000000, 0.0000000000000000000 ) ) ;
#116 = EDGE_CURVE ( 'NONE', #58, #58, #158, .T. ) ;
#117 = APPROVAL ( #162, 'UNSPECIFIED' ) ;
#118 = SHAPE_DEFINITION_REPRESENTATION ( #82, #111 ) ;
#119 = PERSON_AND_ORGANIZATION ( #241, #87 ) ;
#120 = ORIENTED_EDGE ( 'NONE', *, *, #169, .F. ) ;
#121 = ADVANCED_FACE ( 'NONE', ( #185 ), #125, .F. ) ;
#122 = DIRECTION ( 'NONE',  ( 0.0000000000000000000, 1.000000000000000000, 0.0000000000000000000 ) ) ;
#123 = FACE_BOUND ( 'NONE', #93, .T. ) ;
#124 = AXIS2_PLACEMENT_3D ( 'NONE', #242, #226, #108 ) ;
#125 = PLANE ( 'NONE',  #148 ) ;
#126 = EDGE_LOOP ( 'NONE', ( #84 ) ) ;
#127 = DIRECTION ( 'NONE',  ( 3.491481338843133355E-15, -0.0000000000000000000, 1.000000000000000000 ) ) ;
#128 = CC_DESIGN_DATE_AND_TIME_ASSIGNMENT ( #78, #159, ( #223 ) ) ;
#129 = AXIS2_PLACEMENT_3D ( 'NONE', #46, #106, #122 ) ;
#130 = UNCERTAINTY_MEASURE_WITH_UNIT (LENGTH_MEASURE( 1.000000000000000082E-05 ), #53, 'distance_accuracy_value', 'NONE');
#131 = CARTESIAN_POINT ( 'NONE',  ( 0.1500000000000024092, 0.0000000000000000000, 0.6999999999999989564 ) ) ;
#132 = MECHANICAL_CONTEXT ( 'NONE', #213, 'mechanical' ) ;
#133 = PRODUCT_DEFINITION_FORMATION_WITH_SPECIFIED_SOURCE ( 'ANY', '', #85, .NOT_KNOWN. ) ;
#134 = DIRECTION ( 'NONE',  ( -4.275831445896958607E-31, -1.000000000000000000, -1.224646799147353207E-16 ) ) ;
#135 = EDGE_CURVE ( 'NONE', #190, #190, #35, .T. ) ;
#136 = MANIFOLD_SOLID_BREP ( 'Corps-Déplacer/Copier1[1]', #222 ) ;
#137 = CALENDAR_DATE ( 2021, 15, 11 ) ;
#138 = COORDINATED_UNIVERSAL_TIME_OFFSET ( 1, 0, .AHEAD. ) ;
#139 = EDGE_LOOP ( 'NONE', ( #182 ) ) ;
#140 = AXIS2_PLACEMENT_3D ( 'NONE', #115, #207, #175 ) ;
#141 = COORDINATED_UNIVERSAL_TIME_OFFSET ( 1, 0, .AHEAD. ) ;
#142 = PERSON_AND_ORGANIZATION ( #241, #87 ) ;
#143 = EDGE_LOOP ( 'NONE', ( #183 ) ) ;
#144 = EDGE_LOOP ( 'NONE', ( #59 ) ) ;
#145 = FACE_OUTER_BOUND ( 'NONE', #139, .T. ) ;
#146 = ADVANCED_FACE ( 'NONE', ( #48, #145 ), #88, .T. ) ;
#147 = CARTESIAN_POINT ( 'NONE',  ( -4.275831445896957731E-31, 1.499759782661857608E-32, -1.224646799147353207E-16 ) ) ;
#148 = AXIS2_PLACEMENT_3D ( 'NONE', #49, #86, #16 ) ;
#149 = FACE_OUTER_BOUND ( 'NONE', #126, .T. ) ;
#150 = FACE_OUTER_BOUND ( 'NONE', #103, .T. ) ;
#151 = ADVANCED_FACE ( 'NONE', ( #188, #123 ), #186, .T. ) ;
#152 = CARTESIAN_POINT ( 'NONE',  ( 2.444036937190192560E-15, -7.589415207398528573E-17, 0.6999999999999997335 ) ) ;
#153 = AXIS2_PLACEMENT_3D ( 'NONE', #147, #243, #187 ) ;
#154 = AXIS2_PLACEMENT_3D ( 'NONE', #89, #68, #227 ) ;
#155 = APPLICATION_PROTOCOL_DEFINITION ( 'international standard', 'config_control_design', 1994, #50 ) ;
#156 = CARTESIAN_POINT ( 'NONE',  ( 2.000000000000027534, 0.0000000000000000000, 7.867598989177382762 ) ) ;
#157 = CALENDAR_DATE ( 2021, 15, 11 ) ;
#158 = CIRCLE ( 'NONE', #154, 1.600000000000001865 ) ;
#159 = DATE_TIME_ROLE ( 'classification_date' ) ;
#160 = ADVANCED_FACE ( 'NONE', ( #72, #150 ), #74, .F. ) ;
#161 = SECURITY_CLASSIFICATION_LEVEL ( 'unclassified' ) ;
#162 = APPROVAL_STATUS ( 'not_yet_approved' ) ;
#163 = APPROVAL_PERSON_ORGANIZATION ( #177, #20, #23 ) ;
#164 = ORIENTED_EDGE ( 'NONE', *, *, #135, .F. ) ;
#165 = CC_DESIGN_PERSON_AND_ORGANIZATION_ASSIGNMENT ( #237, #220, ( #133 ) ) ;
#166 = PERSON_AND_ORGANIZATION ( #241, #87 ) ;
#167 = DIRECTION ( 'NONE',  ( 1.000000000000000000, 0.0000000000000000000, -3.614007241618349165E-15 ) ) ;
#168 = DIRECTION ( 'NONE',  ( 1.000000000000000000, 0.0000000000000000000, -3.491481338843132961E-15 ) ) ;
#169 = EDGE_CURVE ( 'NONE', #55, #55, #47, .T. ) ;
#170 = CARTESIAN_POINT ( 'NONE',  ( 2.746957505221395495E-14, 0.0000000000000000000, 7.867598989177388979 ) ) ;
#171 = DIRECTION ( 'NONE',  ( 1.000000000000000000, 0.0000000000000000000, -3.976017917344478684E-15 ) ) ;
#172 = CC_DESIGN_PERSON_AND_ORGANIZATION_ASSIGNMENT ( #166, #83, ( #133 ) ) ;
#173 = CARTESIAN_POINT ( 'NONE',  ( 2.444036937190191377E-15, 0.0000000000000000000, 0.6999999999999994005 ) ) ;
#174 = DIRECTION ( 'NONE',  ( -3.491481338843133355E-15, 1.224646799147353207E-16, -1.000000000000000000 ) ) ;
#175 = DIRECTION ( 'NONE',  ( 1.000000000000000000, 0.0000000000000000000, 0.0000000000000000000 ) ) ;
#176 = LOCAL_TIME ( 8, 41, 49.00000000000000000, #141 ) ;
#177 = PERSON_AND_ORGANIZATION ( #241, #87 ) ;
#178 = PLANE ( 'NONE',  #179 ) ;
#179 = AXIS2_PLACEMENT_3D ( 'NONE', #38, #6, #75 ) ;
#180 = EDGE_LOOP ( 'NONE', ( #62 ) ) ;
#181 = ADVANCED_FACE ( 'NONE', ( #1, #149 ), #229, .T. ) ;
#182 = ORIENTED_EDGE ( 'NONE', *, *, #91, .F. ) ;
#183 = ORIENTED_EDGE ( 'NONE', *, *, #116, .F. ) ;
#184 = ADVANCED_FACE ( 'NONE', ( #234 ), #24, .F. ) ;
#185 = FACE_OUTER_BOUND ( 'NONE', #143, .T. ) ;
#186 = CONICAL_SURFACE ( 'NONE', #113, 4.000000000000000000, 0.2617993877991428575 ) ;
#187 = DIRECTION ( 'NONE',  ( 4.275831445896958607E-31, 1.000000000000000000, 1.224646799147353207E-16 ) ) ;
#188 = FACE_OUTER_BOUND ( 'NONE', #204, .T. ) ;
#189 = PRODUCT_RELATED_PRODUCT_CATEGORY ( 'detail', '', ( #85 ) ) ;
#190 = VERTEX_POINT ( 'NONE', #156 ) ;
#191 = CARTESIAN_POINT ( 'NONE',  ( 1.312796983405018394E-13, 1.999999999999994893, 37.60000000000000853 ) ) ;
#192 = AXIS2_PLACEMENT_3D ( 'NONE', #18, #90, #171 ) ;
#193 = VERTEX_POINT ( 'NONE', #39 ) ;
#194 = APPROVAL_DATE_TIME ( #233, #20 ) ;
#195 = CC_DESIGN_DATE_AND_TIME_ASSIGNMENT ( #40, #9, ( #54 ) ) ;
#196 = APPROVAL_DATE_TIME ( #43, #71 ) ;
#197 = PERSON_AND_ORGANIZATION_ROLE ( 'creator' ) ;
#198 = ADVANCED_FACE ( 'NONE', ( #232, #210 ), #69, .T. ) ;
#199 = ORIENTED_EDGE ( 'NONE', *, *, #41, .F. ) ;
#200 = APPROVAL_DATE_TIME ( #236, #117 ) ;
#201 = CC_DESIGN_SECURITY_CLASSIFICATION ( #223, ( #133 ) ) ;
#202 = FACE_OUTER_BOUND ( 'NONE', #45, .T. ) ;
#203 = DIRECTION ( 'NONE',  ( 1.000000000000000000, 0.0000000000000000000, -3.469446951953614189E-15 ) ) ;
#204 = EDGE_LOOP ( 'NONE', ( #164 ) ) ;
#205 = CARTESIAN_POINT ( 'NONE',  ( 0.0000000000000000000, 0.0000000000000000000, 0.0000000000000000000 ) ) ;
#206 = CC_DESIGN_PERSON_AND_ORGANIZATION_ASSIGNMENT ( #119, #197, ( #54 ) ) ;
#207 = DIRECTION ( 'NONE',  ( 0.0000000000000000000, 0.0000000000000000000, 1.000000000000000000 ) ) ;
#208 = AXIS2_PLACEMENT_3D ( 'NONE', #36, #174, #214 ) ;
#209 = DIRECTION ( 'NONE',  ( 3.491481338843133355E-15, -1.224646799147353207E-16, 1.000000000000000000 ) ) ;
#210 = FACE_OUTER_BOUND ( 'NONE', #44, .T. ) ;
#211 = PERSON_AND_ORGANIZATION ( #241, #87 ) ;
#212 =( GEOMETRIC_REPRESENTATION_CONTEXT ( 3 ) GLOBAL_UNCERTAINTY_ASSIGNED_CONTEXT ( ( #130 ) ) GLOBAL_UNIT_ASSIGNED_CONTEXT ( ( #53, #98, #73 ) ) REPRESENTATION_CONTEXT ( 'NONE', 'WORKASPACE' ) );
#213 = APPLICATION_CONTEXT ( 'configuration controlled 3d designs of mechanical parts and assemblies' ) ;
#214 = DIRECTION ( 'NONE',  ( 0.0000000000000000000, 1.000000000000000000, 0.0000000000000000000 ) ) ;
#215 = CALENDAR_DATE ( 2021, 15, 11 ) ;
#216 = EDGE_LOOP ( 'NONE', ( #239 ) ) ;
#217 = MANIFOLD_SOLID_BREP ( 'Corps-Déplacer/Copier1[2]', #19 ) ;
#218 = PERSON_AND_ORGANIZATION ( #241, #87 ) ;
#219 = ORIENTED_EDGE ( 'NONE', *, *, #104, .F. ) ;
#220 = PERSON_AND_ORGANIZATION_ROLE ( 'design_supplier' ) ;
#221 = EDGE_LOOP ( 'NONE', ( #27 ) ) ;
#222 = CLOSED_SHELL ( 'NONE', ( #181, #198, #121, #160, #151, #184 ) ) ;
#223 = SECURITY_CLASSIFICATION ( '', '', #161 ) ;
#224 = CC_DESIGN_PERSON_AND_ORGANIZATION_ASSIGNMENT ( #28, #12, ( #223 ) ) ;
#225 = DIRECTION ( 'NONE',  ( 3.491481338843133355E-15, -0.0000000000000000000, 1.000000000000000000 ) ) ;
#226 = DIRECTION ( 'NONE',  ( 3.491481338843133355E-15, -0.0000000000000000000, 1.000000000000000000 ) ) ;
#227 = DIRECTION ( 'NONE',  ( 0.0000000000000000000, 1.000000000000000000, 0.0000000000000000000 ) ) ;
#228 = CC_DESIGN_APPROVAL ( #71, ( #223 ) ) ;
#229 = CYLINDRICAL_SURFACE ( 'NONE', #65, 2.000000000000000000 ) ;
#230 = CARTESIAN_POINT ( 'NONE',  ( 5.353034655269700424E-14, 0.0000000000000000000, 15.33170060431534054 ) ) ;
#231 = CARTESIAN_POINT ( 'NONE',  ( 0.2181483474218642304, 0.0000000000000000000, 1.217638090205027446 ) ) ;
#232 = FACE_BOUND ( 'NONE', #221, .T. ) ;
#233 = DATE_AND_TIME ( #157, #2 ) ;
#234 = FACE_OUTER_BOUND ( 'NONE', #180, .T. ) ;
#235 = LOCAL_TIME ( 8, 41, 49.00000000000000000, #102 ) ;
#236 = DATE_AND_TIME ( #215, #176 ) ;
#237 = PERSON_AND_ORGANIZATION ( #241, #87 ) ;
#238 = ADVANCED_FACE ( 'NONE', ( #109 ), #178, .T. ) ;
#239 = ORIENTED_EDGE ( 'NONE', *, *, #104, .T. ) ;
#240 = DIRECTION ( 'NONE',  ( 3.491481338843133355E-15, -0.0000000000000000000, 1.000000000000000000 ) ) ;
#241 = PERSON ( 'UNSPECIFIED', 'UNSPECIFIED', 'UNSPECIFIED', ('UNSPECIFIED'), ('UNSPECIFIED'), ('UNSPECIFIED') ) ;
#242 = CARTESIAN_POINT ( 'NONE',  ( 0.0000000000000000000, 0.0000000000000000000, 0.0000000000000000000 ) ) ;
#243 = DIRECTION ( 'NONE',  ( -3.491481338843133355E-15, 1.224646799147353207E-16, -1.000000000000000000 ) ) ;
ENDSEC;
END-ISO-10303-21;
