ISO-10303-21;
HEADER;
FILE_DESCRIPTION (( 'STEP AP203' ),
    '1' );
FILE_NAME ('334879.step',
    '2021-11-09T06:47:16',
    ( '' ),
    ( '' ),
    'SwSTEP 2.0',
    'SolidWorks 2019',
    '' );
FILE_SCHEMA (( 'CONFIG_CONTROL_DESIGN' ));
ENDSEC;

DATA;
#1 = DATE_AND_TIME ( #44, #98 ) ;
#2 = ORIENTED_EDGE ( 'NONE', *, *, #172, .F. ) ;
#3 = PERSON_AND_ORGANIZATION ( #56, #95 ) ;
#4 = LOCAL_TIME ( 7, 47, 16.00000000000000000, #183 ) ;
#5 = APPROVAL_DATE_TIME ( #22, #84 ) ;
#6 = DATE_AND_TIME ( #194, #128 ) ;
#7 = FACE_OUTER_BOUND ( 'NONE', #168, .T. ) ;
#8 =( LENGTH_UNIT ( ) NAMED_UNIT ( * ) SI_UNIT ( .MILLI., .METRE. ) );
#9 = CC_DESIGN_APPROVAL ( #84, ( #59 ) ) ;
#10 = EDGE_LOOP ( 'NONE', ( #35 ) ) ;
#11 = LOCAL_TIME ( 7, 47, 16.00000000000000000, #203 ) ;
#12 = APPLICATION_PROTOCOL_DEFINITION ( 'international standard', 'config_control_design', 1994, #79 ) ;
#13 = CC_DESIGN_PERSON_AND_ORGANIZATION_ASSIGNMENT ( #85, #135, ( #59 ) ) ;
#14 = CARTESIAN_POINT ( 'NONE',  ( 5.237222008264700033E-14, 0.0000000000000000000, 15.00000000000000000 ) ) ;
#15 = DIRECTION ( 'NONE',  ( -1.000000000000000000, 0.0000000000000000000, 3.491481338843133355E-15 ) ) ;
#16 = CARTESIAN_POINT ( 'NONE',  ( 2.339292497024899474E-13, 0.0000000000000000000, 67.00000000000000000 ) ) ;
#17 = CC_DESIGN_PERSON_AND_ORGANIZATION_ASSIGNMENT ( #78, #18, ( #29 ) ) ;
#18 = PERSON_AND_ORGANIZATION_ROLE ( 'classification_officer' ) ;
#19 = ORIENTED_EDGE ( 'NONE', *, *, #151, .T. ) ;
#20 = ADVANCED_FACE ( 'NONE', ( #7, #41 ), #38, .T. ) ;
#21 = CIRCLE ( 'NONE', #43, 5.000000000000000000 ) ;
#22 = DATE_AND_TIME ( #170, #4 ) ;
#23 = MECHANICAL_CONTEXT ( 'NONE', #198, 'mechanical' ) ;
#24 = EDGE_LOOP ( 'NONE', ( #127 ) ) ;
#25 = APPLICATION_PROTOCOL_DEFINITION ( 'international standard', 'config_control_design', 1994, #198 ) ;
#26 = CARTESIAN_POINT ( 'NONE',  ( 2.339292497024899474E-13, 0.0000000000000000000, 67.00000000000000000 ) ) ;
#27 = CARTESIAN_POINT ( 'NONE',  ( 0.0000000000000000000, 0.0000000000000000000, 0.0000000000000000000 ) ) ;
#28 = DIRECTION ( 'NONE',  ( 3.491481338843133355E-15, -0.0000000000000000000, 1.000000000000000000 ) ) ;
#29 = SECURITY_CLASSIFICATION ( '', '', #167 ) ;
#30 = COORDINATED_UNIVERSAL_TIME_OFFSET ( 1, 0, .AHEAD. ) ;
#31 = ORIENTED_EDGE ( 'NONE', *, *, #151, .F. ) ;
#32 = ADVANCED_FACE ( 'NONE', ( #187 ), #199, .T. ) ;
#33 = CIRCLE ( 'NONE', #180, 4.499999999999999112 ) ;
#34 = ORIENTED_EDGE ( 'NONE', *, *, #169, .T. ) ;
#35 = ORIENTED_EDGE ( 'NONE', *, *, #63, .F. ) ;
#36 = FACE_OUTER_BOUND ( 'NONE', #62, .T. ) ;
#37 = CARTESIAN_POINT ( 'NONE',  ( 2.137876538271898504E-31, 0.0000000000000000000, 6.123121766362532060E-17 ) ) ;
#38 = CYLINDRICAL_SURFACE ( 'NONE', #181, 5.000000000000000000 ) ;
#39 = AXIS2_PLACEMENT_3D ( 'NONE', #201, #162, #15 ) ;
#40 = CARTESIAN_POINT ( 'NONE',  ( 5.237222008264700033E-14, 0.0000000000000000000, 15.00000000000000000 ) ) ;
#41 = FACE_OUTER_BOUND ( 'NONE', #24, .T. ) ;
#42 = PERSON_AND_ORGANIZATION ( #56, #95 ) ;
#43 = AXIS2_PLACEMENT_3D ( 'NONE', #91, #163, #200 ) ;
#44 = CALENDAR_DATE ( 2021, 9, 11 ) ;
#45 = CC_DESIGN_PERSON_AND_ORGANIZATION_ASSIGNMENT ( #64, #149, ( #152 ) ) ;
#46 = APPROVAL_ROLE ( '' ) ;
#47 = CC_DESIGN_DATE_AND_TIME_ASSIGNMENT ( #6, #67, ( #59 ) ) ;
#48 = CARTESIAN_POINT ( 'NONE',  ( 5.000000000000000000, 0.0000000000000000000, -1.733494425888841614E-14 ) ) ;
#49 = CLOSED_SHELL ( 'NONE', ( #32, #51, #141, #92 ) ) ;
#50 = PLANE ( 'NONE',  #60 ) ;
#51 = ADVANCED_FACE ( 'NONE', ( #157, #188 ), #144, .T. ) ;
#52 = CC_DESIGN_APPROVAL ( #108, ( #29 ) ) ;
#53 = EDGE_LOOP ( 'NONE', ( #122 ) ) ;
#54 = DIRECTION ( 'NONE',  ( 3.491481338843133355E-15, -0.0000000000000000000, 1.000000000000000000 ) ) ;
#55 = FACE_BOUND ( 'NONE', #68, .T. ) ;
#56 = PERSON ( 'UNSPECIFIED', 'UNSPECIFIED', 'UNSPECIFIED', ('UNSPECIFIED'), ('UNSPECIFIED'), ('UNSPECIFIED') ) ;
#57 = APPROVAL_ROLE ( '' ) ;
#58 = ORIENTED_EDGE ( 'NONE', *, *, #63, .T. ) ;
#59 = PRODUCT_DEFINITION ( 'UNKNOWN', '', #152, #131 ) ;
#60 = AXIS2_PLACEMENT_3D ( 'NONE', #37, #97, #195 ) ;
#61 = DIRECTION ( 'NONE',  ( 3.491481338843133355E-15, -0.0000000000000000000, 1.000000000000000000 ) ) ;
#62 = EDGE_LOOP ( 'NONE', ( #19 ) ) ;
#63 = EDGE_CURVE ( 'NONE', #121, #121, #138, .T. ) ;
#64 = PERSON_AND_ORGANIZATION ( #56, #95 ) ;
#65 = APPROVAL_DATE_TIME ( #115, #108 ) ;
#66 = ADVANCED_BREP_SHAPE_REPRESENTATION ( '334879', ( #102, #99, #182 ), #69 ) ;
#67 = DATE_TIME_ROLE ( 'creation_date' ) ;
#68 = EDGE_LOOP ( 'NONE', ( #31 ) ) ;
#69 =( GEOMETRIC_REPRESENTATION_CONTEXT ( 3 ) GLOBAL_UNCERTAINTY_ASSIGNED_CONTEXT ( ( #164 ) ) GLOBAL_UNIT_ASSIGNED_CONTEXT ( ( #8, #100, #119 ) ) REPRESENTATION_CONTEXT ( 'NONE', 'WORKASPACE' ) );
#70 = APPROVAL_PERSON_ORGANIZATION ( #42, #108, #46 ) ;
#71 = CARTESIAN_POINT ( 'NONE',  ( 4.275753076543797008E-31, 0.0000000000000000000, 1.224624353272506412E-16 ) ) ;
#72 = DIRECTION ( 'NONE',  ( 0.0000000000000000000, 0.0000000000000000000, 1.000000000000000000 ) ) ;
#73 = DIRECTION ( 'NONE',  ( -1.000000000000000000, 0.0000000000000000000, 3.491481338843133355E-15 ) ) ;
#74 = DIRECTION ( 'NONE',  ( 1.000000000000000000, 0.0000000000000000000, -3.469446951953614189E-15 ) ) ;
#75 = DIRECTION ( 'NONE',  ( 1.000000000000000000, 0.0000000000000000000, -3.491481338843133355E-15 ) ) ;
#76 = ORIENTED_EDGE ( 'NONE', *, *, #113, .T. ) ;
#77 = APPROVAL_STATUS ( 'not_yet_approved' ) ;
#78 = PERSON_AND_ORGANIZATION ( #56, #95 ) ;
#79 = APPLICATION_CONTEXT ( 'configuration controlled 3d designs of mechanical parts and assemblies' ) ;
#80 = PERSON_AND_ORGANIZATION ( #56, #95 ) ;
#81 = AXIS2_PLACEMENT_3D ( 'NONE', #71, #142, #197 ) ;
#82 = APPROVAL_PERSON_ORGANIZATION ( #3, #87, #189 ) ;
#83 = FACE_OUTER_BOUND ( 'NONE', #137, .T. ) ;
#84 = APPROVAL ( #193, 'UNSPECIFIED' ) ;
#85 = PERSON_AND_ORGANIZATION ( #56, #95 ) ;
#86 = DIRECTION ( 'NONE',  ( 3.491481338843133355E-15, -0.0000000000000000000, 1.000000000000000000 ) ) ;
#87 = APPROVAL ( #132, 'UNSPECIFIED' ) ;
#88 = CARTESIAN_POINT ( 'NONE',  ( 5.000000000000232703, 0.0000000000000000000, 66.49999999999998579 ) ) ;
#89 = DIRECTION ( 'NONE',  ( 3.491481338843133355E-15, -0.0000000000000000000, 1.000000000000000000 ) ) ;
#90 = DIRECTION ( 'NONE',  ( 1.000000000000000000, 0.0000000000000000000, -3.491481338843133355E-15 ) ) ;
#91 = CARTESIAN_POINT ( 'NONE',  ( 2.321835090330683366E-13, 0.0000000000000000000, 66.50000000000000000 ) ) ;
#92 = ADVANCED_FACE ( 'NONE', ( #36 ), #106, .T. ) ;
#93 = DATE_AND_TIME ( #111, #139 ) ;
#94 = APPROVAL_PERSON_ORGANIZATION ( #143, #84, #57 ) ;
#95 = ORGANIZATION ( 'UNSPECIFIED', 'UNSPECIFIED', '' ) ;
#96 = ADVANCED_FACE ( 'NONE', ( #175 ), #155, .F. ) ;
#97 = DIRECTION ( 'NONE',  ( -3.491481338843133355E-15, 0.0000000000000000000, -1.000000000000000000 ) ) ;
#98 = LOCAL_TIME ( 7, 47, 16.00000000000000000, #130 ) ;
#99 = MANIFOLD_SOLID_BREP ( 'Corps-Déplacer/Copier1[2]', #116 ) ;
#100 =( NAMED_UNIT ( * ) PLANE_ANGLE_UNIT ( ) SI_UNIT ( $, .RADIAN. ) );
#101 = EDGE_LOOP ( 'NONE', ( #58 ) ) ;
#102 = MANIFOLD_SOLID_BREP ( 'Corps-Déplacer/Copier1[1]', #49 ) ;
#103 = CARTESIAN_POINT ( 'NONE',  ( 4.500000000000232703, 0.0000000000000000000, 66.99999999999998579 ) ) ;
#104 = EDGE_LOOP ( 'NONE', ( #34 ) ) ;
#105 = CIRCLE ( 'NONE', #110, 5.000000000000000000 ) ;
#106 = PLANE ( 'NONE',  #166 ) ;
#107 = FACE_OUTER_BOUND ( 'NONE', #53, .T. ) ;
#108 = APPROVAL ( #77, 'UNSPECIFIED' ) ;
#109 = APPROVAL_DATE_TIME ( #1, #87 ) ;
#110 = AXIS2_PLACEMENT_3D ( 'NONE', #14, #61, #176 ) ;
#111 = CALENDAR_DATE ( 2021, 9, 11 ) ;
#112 = PRODUCT_DEFINITION_SHAPE ( 'NONE', 'NONE',  #59 ) ;
#113 = EDGE_CURVE ( 'NONE', #171, #171, #177, .T. ) ;
#114 = PERSON_AND_ORGANIZATION_ROLE ( 'design_supplier' ) ;
#115 = DATE_AND_TIME ( #148, #11 ) ;
#116 = CLOSED_SHELL ( 'NONE', ( #20, #96, #179 ) ) ;
#117 = PRODUCT_RELATED_PRODUCT_CATEGORY ( 'detail', '', ( #150 ) ) ;
#118 = PERSON_AND_ORGANIZATION ( #56, #95 ) ;
#119 =( NAMED_UNIT ( * ) SI_UNIT ( $, .STERADIAN. ) SOLID_ANGLE_UNIT ( ) );
#120 = AXIS2_PLACEMENT_3D ( 'NONE', #40, #28, #74 ) ;
#121 = VERTEX_POINT ( 'NONE', #185 ) ;
#122 = ORIENTED_EDGE ( 'NONE', *, *, #172, .T. ) ;
#123 = DIRECTION ( 'NONE',  ( 1.000000000000000000, 0.0000000000000000000, 0.0000000000000000000 ) ) ;
#124 = CC_DESIGN_PERSON_AND_ORGANIZATION_ASSIGNMENT ( #118, #159, ( #150 ) ) ;
#125 = CARTESIAN_POINT ( 'NONE',  ( 0.0000000000000000000, 0.0000000000000000000, 0.0000000000000000000 ) ) ;
#126 = EDGE_LOOP ( 'NONE', ( #2 ) ) ;
#127 = ORIENTED_EDGE ( 'NONE', *, *, #169, .F. ) ;
#128 = LOCAL_TIME ( 7, 47, 16.00000000000000000, #154 ) ;
#129 = DIRECTION ( 'NONE',  ( 3.491481338843133355E-15, -0.0000000000000000000, 1.000000000000000000 ) ) ;
#130 = COORDINATED_UNIVERSAL_TIME_OFFSET ( 1, 0, .AHEAD. ) ;
#131 = DESIGN_CONTEXT ( 'detailed design', #79, 'design' ) ;
#132 = APPROVAL_STATUS ( 'not_yet_approved' ) ;
#133 = CC_DESIGN_APPROVAL ( #87, ( #152 ) ) ;
#134 = CONICAL_SURFACE ( 'NONE', #196, 4.499999999999999112, 0.7853981633974491672 ) ;
#135 = PERSON_AND_ORGANIZATION_ROLE ( 'creator' ) ;
#136 = VERTEX_POINT ( 'NONE', #103 ) ;
#137 = EDGE_LOOP ( 'NONE', ( #147 ) ) ;
#138 = CIRCLE ( 'NONE', #120, 5.000000000000000000 ) ;
#139 = LOCAL_TIME ( 7, 47, 16.00000000000000000, #30 ) ;
#140 = VERTEX_POINT ( 'NONE', #88 ) ;
#141 = ADVANCED_FACE ( 'NONE', ( #107, #55 ), #134, .T. ) ;
#142 = DIRECTION ( 'NONE',  ( 3.491481338843133355E-15, -0.0000000000000000000, 1.000000000000000000 ) ) ;
#143 = PERSON_AND_ORGANIZATION ( #56, #95 ) ;
#144 = CYLINDRICAL_SURFACE ( 'NONE', #190, 5.000000000000000000 ) ;
#145 = CARTESIAN_POINT ( 'NONE',  ( 5.237222008264700033E-14, 0.0000000000000000000, 15.00000000000000000 ) ) ;
#146 = DIRECTION ( 'NONE',  ( -3.491481338843133355E-15, 0.0000000000000000000, -1.000000000000000000 ) ) ;
#147 = ORIENTED_EDGE ( 'NONE', *, *, #113, .F. ) ;
#148 = CALENDAR_DATE ( 2021, 9, 11 ) ;
#149 = PERSON_AND_ORGANIZATION_ROLE ( 'creator' ) ;
#150 = PRODUCT ( '334879', '334879', '', ( #23 ) ) ;
#151 = EDGE_CURVE ( 'NONE', #136, #136, #33, .T. ) ;
#152 = PRODUCT_DEFINITION_FORMATION_WITH_SPECIFIED_SOURCE ( 'ANY', '', #150, .NOT_KNOWN. ) ;
#153 = CARTESIAN_POINT ( 'NONE',  ( 0.0000000000000000000, 0.0000000000000000000, 0.0000000000000000000 ) ) ;
#154 = COORDINATED_UNIVERSAL_TIME_OFFSET ( 1, 0, .AHEAD. ) ;
#155 = PLANE ( 'NONE',  #39 ) ;
#156 = CARTESIAN_POINT ( 'NONE',  ( 5.000000000000052403, 0.0000000000000000000, 14.99999999999998224 ) ) ;
#157 = FACE_OUTER_BOUND ( 'NONE', #101, .T. ) ;
#158 = AXIS2_PLACEMENT_3D ( 'NONE', #145, #146, #73 ) ;
#159 = PERSON_AND_ORGANIZATION_ROLE ( 'design_owner' ) ;
#160 = DIRECTION ( 'NONE',  ( 1.000000000000000000, 0.0000000000000000000, -3.083952846180990872E-15 ) ) ;
#161 = CC_DESIGN_PERSON_AND_ORGANIZATION_ASSIGNMENT ( #80, #114, ( #152 ) ) ;
#162 = DIRECTION ( 'NONE',  ( -3.491481338843133355E-15, 0.0000000000000000000, -1.000000000000000000 ) ) ;
#163 = DIRECTION ( 'NONE',  ( 3.491481338843133355E-15, -0.0000000000000000000, 1.000000000000000000 ) ) ;
#164 = UNCERTAINTY_MEASURE_WITH_UNIT (LENGTH_MEASURE( 1.000000000000000082E-05 ), #8, 'distance_accuracy_value', 'NONE');
#165 = SHAPE_DEFINITION_REPRESENTATION ( #112, #66 ) ;
#166 = AXIS2_PLACEMENT_3D ( 'NONE', #202, #86, #75 ) ;
#167 = SECURITY_CLASSIFICATION_LEVEL ( 'unclassified' ) ;
#168 = EDGE_LOOP ( 'NONE', ( #76 ) ) ;
#169 = EDGE_CURVE ( 'NONE', #184, #184, #105, .T. ) ;
#170 = CALENDAR_DATE ( 2021, 9, 11 ) ;
#171 = VERTEX_POINT ( 'NONE', #48 ) ;
#172 = EDGE_CURVE ( 'NONE', #140, #140, #21, .T. ) ;
#173 = DIRECTION ( 'NONE',  ( 1.000000000000000000, 0.0000000000000000000, -3.491481338843133355E-15 ) ) ;
#174 = DIRECTION ( 'NONE',  ( -1.000000000000000000, 0.0000000000000000000, 3.083952846180990872E-15 ) ) ;
#175 = FACE_OUTER_BOUND ( 'NONE', #104, .T. ) ;
#176 = DIRECTION ( 'NONE',  ( 1.000000000000000000, 0.0000000000000000000, -3.469446951953614189E-15 ) ) ;
#177 = CIRCLE ( 'NONE', #81, 5.000000000000000000 ) ;
#178 = CC_DESIGN_SECURITY_CLASSIFICATION ( #29, ( #152 ) ) ;
#179 = ADVANCED_FACE ( 'NONE', ( #83 ), #50, .T. ) ;
#180 = AXIS2_PLACEMENT_3D ( 'NONE', #26, #89, #160 ) ;
#181 = AXIS2_PLACEMENT_3D ( 'NONE', #27, #54, #173 ) ;
#182 = AXIS2_PLACEMENT_3D ( 'NONE', #153, #72, #123 ) ;
#183 = COORDINATED_UNIVERSAL_TIME_OFFSET ( 1, 0, .AHEAD. ) ;
#184 = VERTEX_POINT ( 'NONE', #156 ) ;
#185 = CARTESIAN_POINT ( 'NONE',  ( 5.000000000000052403, 0.0000000000000000000, 14.99999999999998224 ) ) ;
#186 = DIRECTION ( 'NONE',  ( -3.491481338843133355E-15, 0.0000000000000000000, -1.000000000000000000 ) ) ;
#187 = FACE_OUTER_BOUND ( 'NONE', #10, .T. ) ;
#188 = FACE_OUTER_BOUND ( 'NONE', #126, .T. ) ;
#189 = APPROVAL_ROLE ( '' ) ;
#190 = AXIS2_PLACEMENT_3D ( 'NONE', #125, #129, #90 ) ;
#191 = DATE_TIME_ROLE ( 'classification_date' ) ;
#192 = CC_DESIGN_DATE_AND_TIME_ASSIGNMENT ( #93, #191, ( #29 ) ) ;
#193 = APPROVAL_STATUS ( 'not_yet_approved' ) ;
#194 = CALENDAR_DATE ( 2021, 9, 11 ) ;
#195 = DIRECTION ( 'NONE',  ( -1.000000000000000000, 0.0000000000000000000, 3.491481338843133355E-15 ) ) ;
#196 = AXIS2_PLACEMENT_3D ( 'NONE', #16, #186, #174 ) ;
#197 = DIRECTION ( 'NONE',  ( 1.000000000000000000, 0.0000000000000000000, -3.491481338843133355E-15 ) ) ;
#198 = APPLICATION_CONTEXT ( 'configuration controlled 3d designs of mechanical parts and assemblies' ) ;
#199 = PLANE ( 'NONE',  #158 ) ;
#200 = DIRECTION ( 'NONE',  ( 1.000000000000000000, 0.0000000000000000000, -2.775557561562891351E-15 ) ) ;
#201 = CARTESIAN_POINT ( 'NONE',  ( 5.237222008264700033E-14, 0.0000000000000000000, 15.00000000000000000 ) ) ;
#202 = CARTESIAN_POINT ( 'NONE',  ( 2.339292497024899474E-13, 0.0000000000000000000, 67.00000000000000000 ) ) ;
#203 = COORDINATED_UNIVERSAL_TIME_OFFSET ( 1, 0, .AHEAD. ) ;
ENDSEC;
END-ISO-10303-21;
