ISO-10303-21;
HEADER;
FILE_DESCRIPTION (( 'STEP AP203' ),
    '1' );
FILE_NAME ('334878.step',
    '2021-11-09T06:47:16',
    ( '' ),
    ( '' ),
    'SwSTEP 2.0',
    'SolidWorks 2019',
    '' );
FILE_SCHEMA (( 'CONFIG_CONTROL_DESIGN' ));
ENDSEC;

DATA;
#1 = DIRECTION ( 'NONE',  ( 1.000000000000000000, 0.0000000000000000000, -3.469446951953614189E-15 ) ) ;
#2 = DIRECTION ( 'NONE',  ( 1.000000000000000000, 0.0000000000000000000, -3.469446951953614189E-15 ) ) ;
#3 = APPROVAL_DATE_TIME ( #126, #129 ) ;
#4 = AXIS2_PLACEMENT_3D ( 'NONE', #36, #41, #69 ) ;
#5 = ORIENTED_EDGE ( 'NONE', *, *, #66, .T. ) ;
#6 = CC_DESIGN_PERSON_AND_ORGANIZATION_ASSIGNMENT ( #176, #73, ( #187 ) ) ;
#7 = CC_DESIGN_APPROVAL ( #77, ( #18 ) ) ;
#8 = CARTESIAN_POINT ( 'NONE',  ( 4.000000000000041744, 0.0000000000000000000, 11.99999999999998579 ) ) ;
#9 = CALENDAR_DATE ( 2021, 9, 11 ) ;
#10 = APPROVAL_STATUS ( 'not_yet_approved' ) ;
#11 = CALENDAR_DATE ( 2021, 9, 11 ) ;
#12 = ORIENTED_EDGE ( 'NONE', *, *, #193, .F. ) ;
#13 = PERSON_AND_ORGANIZATION ( #148, #191 ) ;
#14 = CIRCLE ( 'NONE', #175, 4.000000000000000000 ) ;
#15 = ORIENTED_EDGE ( 'NONE', *, *, #28, .T. ) ;
#16 = APPLICATION_CONTEXT ( 'configuration controlled 3d designs of mechanical parts and assemblies' ) ;
#17 = DIRECTION ( 'NONE',  ( 3.491481338843133355E-15, -0.0000000000000000000, 1.000000000000000000 ) ) ;
#18 = PRODUCT_DEFINITION_FORMATION_WITH_SPECIFIED_SOURCE ( 'ANY', '', #187, .NOT_KNOWN. ) ;
#19 = CC_DESIGN_PERSON_AND_ORGANIZATION_ASSIGNMENT ( #166, #196, ( #18 ) ) ;
#20 = MANIFOLD_SOLID_BREP ( 'Corps-Déplacer/Copier1[2]', #34 ) ;
#21 = AXIS2_PLACEMENT_3D ( 'NONE', #83, #120, #103 ) ;
#22 = MANIFOLD_SOLID_BREP ( 'Corps-Déplacer/Copier1[1]', #201 ) ;
#23 = VERTEX_POINT ( 'NONE', #56 ) ;
#24 = ADVANCED_FACE ( 'NONE', ( #33 ), #62, .T. ) ;
#25 = DIRECTION ( 'NONE',  ( 3.491481338843133355E-15, -0.0000000000000000000, 1.000000000000000000 ) ) ;
#26 = VERTEX_POINT ( 'NONE', #147 ) ;
#27 = APPROVAL_DATE_TIME ( #43, #132 ) ;
#28 = EDGE_CURVE ( 'NONE', #134, #134, #14, .T. ) ;
#29 = AXIS2_PLACEMENT_3D ( 'NONE', #92, #160, #158 ) ;
#30 = ADVANCED_BREP_SHAPE_REPRESENTATION ( '334878', ( #22, #20, #151 ), #90 ) ;
#31 = LOCAL_TIME ( 7, 47, 16.00000000000000000, #135 ) ;
#32 = CC_DESIGN_DATE_AND_TIME_ASSIGNMENT ( #100, #130, ( #123 ) ) ;
#33 = FACE_OUTER_BOUND ( 'NONE', #74, .T. ) ;
#34 = CLOSED_SHELL ( 'NONE', ( #185, #64, #24 ) ) ;
#35 = FACE_OUTER_BOUND ( 'NONE', #124, .T. ) ;
#36 = CARTESIAN_POINT ( 'NONE',  ( 4.189777606611760026E-14, 0.0000000000000000000, 12.00000000000000000 ) ) ;
#37 = CYLINDRICAL_SURFACE ( 'NONE', #71, 4.000000000000000000 ) ;
#38 = PERSON_AND_ORGANIZATION ( #148, #191 ) ;
#39 = ADVANCED_FACE ( 'NONE', ( #188, #47 ), #107, .T. ) ;
#40 = APPROVAL_STATUS ( 'not_yet_approved' ) ;
#41 = DIRECTION ( 'NONE',  ( -3.491481338843133355E-15, 0.0000000000000000000, -1.000000000000000000 ) ) ;
#42 = CALENDAR_DATE ( 2021, 9, 11 ) ;
#43 = DATE_AND_TIME ( #11, #141 ) ;
#44 = APPROVAL_PERSON_ORGANIZATION ( #82, #77, #200 ) ;
#45 = ORIENTED_EDGE ( 'NONE', *, *, #97, .F. ) ;
#46 = ORIENTED_EDGE ( 'NONE', *, *, #66, .F. ) ;
#47 = FACE_OUTER_BOUND ( 'NONE', #199, .T. ) ;
#48 = CARTESIAN_POINT ( 'NONE',  ( 2.234548056859605347E-13, 0.0000000000000000000, 64.00000000000000000 ) ) ;
#49 =( LENGTH_UNIT ( ) NAMED_UNIT ( * ) SI_UNIT ( .MILLI., .METRE. ) );
#50 = DIRECTION ( 'NONE',  ( 1.000000000000000000, 0.0000000000000000000, 0.0000000000000000000 ) ) ;
#51 = DIRECTION ( 'NONE',  ( 1.000000000000000000, 0.0000000000000000000, -3.469446951953614189E-15 ) ) ;
#52 = LOCAL_TIME ( 7, 47, 16.00000000000000000, #122 ) ;
#53 = CC_DESIGN_APPROVAL ( #129, ( #123 ) ) ;
#54 = SECURITY_CLASSIFICATION_LEVEL ( 'unclassified' ) ;
#55 = DIRECTION ( 'NONE',  ( 1.000000000000000000, 0.0000000000000000000, -3.491481338843133355E-15 ) ) ;
#56 = CARTESIAN_POINT ( 'NONE',  ( 3.500000000000223377, 0.0000000000000000000, 63.99999999999998579 ) ) ;
#57 = EDGE_LOOP ( 'NONE', ( #108 ) ) ;
#58 = CIRCLE ( 'NONE', #157, 4.000000000000000000 ) ;
#59 = DIRECTION ( 'NONE',  ( -3.491481338843133355E-15, 0.0000000000000000000, -1.000000000000000000 ) ) ;
#60 = DIRECTION ( 'NONE',  ( -1.000000000000000000, 0.0000000000000000000, 3.965082230804130614E-15 ) ) ;
#61 = CC_DESIGN_APPROVAL ( #132, ( #170 ) ) ;
#62 = PLANE ( 'NONE',  #96 ) ;
#63 = FACE_OUTER_BOUND ( 'NONE', #156, .T. ) ;
#64 = ADVANCED_FACE ( 'NONE', ( #142 ), #143, .F. ) ;
#65 = AXIS2_PLACEMENT_3D ( 'NONE', #48, #59, #60 ) ;
#66 = EDGE_CURVE ( 'NONE', #192, #192, #140, .T. ) ;
#67 = LOCAL_TIME ( 7, 47, 16.00000000000000000, #68 ) ;
#68 = COORDINATED_UNIVERSAL_TIME_OFFSET ( 1, 0, .AHEAD. ) ;
#69 = DIRECTION ( 'NONE',  ( -1.000000000000000000, 0.0000000000000000000, 3.491481338843133355E-15 ) ) ;
#70 = APPROVAL_DATE_TIME ( #99, #77 ) ;
#71 = AXIS2_PLACEMENT_3D ( 'NONE', #165, #25, #55 ) ;
#72 = PERSON_AND_ORGANIZATION ( #148, #191 ) ;
#73 = PERSON_AND_ORGANIZATION_ROLE ( 'design_owner' ) ;
#74 = EDGE_LOOP ( 'NONE', ( #12 ) ) ;
#75 = APPROVAL_STATUS ( 'not_yet_approved' ) ;
#76 = ADVANCED_FACE ( 'NONE', ( #116 ), #149, .T. ) ;
#77 = APPROVAL ( #10, 'UNSPECIFIED' ) ;
#78 = AXIS2_PLACEMENT_3D ( 'NONE', #181, #178, #51 ) ;
#79 = MECHANICAL_CONTEXT ( 'NONE', #197, 'mechanical' ) ;
#80 = DIRECTION ( 'NONE',  ( 3.491481338843133355E-15, -0.0000000000000000000, 1.000000000000000000 ) ) ;
#81 = VERTEX_POINT ( 'NONE', #182 ) ;
#82 = PERSON_AND_ORGANIZATION ( #148, #191 ) ;
#83 = CARTESIAN_POINT ( 'NONE',  ( 4.189777606611760026E-14, 0.0000000000000000000, 12.00000000000000000 ) ) ;
#84 = APPLICATION_PROTOCOL_DEFINITION ( 'international standard', 'config_control_design', 1994, #16 ) ;
#85 = FACE_OUTER_BOUND ( 'NONE', #57, .T. ) ;
#86 = ORIENTED_EDGE ( 'NONE', *, *, #112, .T. ) ;
#87 = AXIS2_PLACEMENT_3D ( 'NONE', #128, #17, #125 ) ;
#88 = CALENDAR_DATE ( 2021, 9, 11 ) ;
#89 = PRODUCT_RELATED_PRODUCT_CATEGORY ( 'detail', '', ( #187 ) ) ;
#90 =( GEOMETRIC_REPRESENTATION_CONTEXT ( 3 ) GLOBAL_UNCERTAINTY_ASSIGNED_CONTEXT ( ( #155 ) ) GLOBAL_UNIT_ASSIGNED_CONTEXT ( ( #49, #131, #183 ) ) REPRESENTATION_CONTEXT ( 'NONE', 'WORKASPACE' ) );
#91 = COORDINATED_UNIVERSAL_TIME_OFFSET ( 1, 0, .AHEAD. ) ;
#92 = CARTESIAN_POINT ( 'NONE',  ( 0.0000000000000000000, 0.0000000000000000000, 0.0000000000000000000 ) ) ;
#93 = ORIENTED_EDGE ( 'NONE', *, *, #28, .F. ) ;
#94 = PLANE ( 'NONE',  #161 ) ;
#95 = CC_DESIGN_PERSON_AND_ORGANIZATION_ASSIGNMENT ( #38, #150, ( #170 ) ) ;
#96 = AXIS2_PLACEMENT_3D ( 'NONE', #190, #119, #101 ) ;
#97 = EDGE_CURVE ( 'NONE', #26, #26, #58, .T. ) ;
#98 = DIRECTION ( 'NONE',  ( 1.000000000000000000, 0.0000000000000000000, -3.491481338843133355E-15 ) ) ;
#99 = DATE_AND_TIME ( #9, #67 ) ;
#100 = DATE_AND_TIME ( #42, #31 ) ;
#101 = DIRECTION ( 'NONE',  ( -1.000000000000000000, 0.0000000000000000000, 3.491481338843133355E-15 ) ) ;
#102 = CARTESIAN_POINT ( 'NONE',  ( 4.000000000000041744, 0.0000000000000000000, 11.99999999999998579 ) ) ;
#103 = DIRECTION ( 'NONE',  ( -1.000000000000000000, 0.0000000000000000000, 3.491481338843133355E-15 ) ) ;
#104 = CIRCLE ( 'NONE', #87, 3.500000000000000000 ) ;
#105 = APPLICATION_PROTOCOL_DEFINITION ( 'international standard', 'config_control_design', 1994, #197 ) ;
#106 = SHAPE_DEFINITION_REPRESENTATION ( #203, #30 ) ;
#107 = CYLINDRICAL_SURFACE ( 'NONE', #29, 4.000000000000000000 ) ;
#108 = ORIENTED_EDGE ( 'NONE', *, *, #193, .T. ) ;
#109 = CALENDAR_DATE ( 2021, 9, 11 ) ;
#110 = FACE_OUTER_BOUND ( 'NONE', #169, .T. ) ;
#111 = CONICAL_SURFACE ( 'NONE', #65, 3.500000000000000000, 0.7853981633974479459 ) ;
#112 = EDGE_CURVE ( 'NONE', #23, #23, #104, .T. ) ;
#113 = CARTESIAN_POINT ( 'NONE',  ( 2.217090650165389744E-13, 0.0000000000000000000, 63.50000000000000000 ) ) ;
#114 = AXIS2_PLACEMENT_3D ( 'NONE', #180, #163, #98 ) ;
#115 = DIRECTION ( 'NONE',  ( 0.0000000000000000000, 0.0000000000000000000, 1.000000000000000000 ) ) ;
#116 = FACE_OUTER_BOUND ( 'NONE', #159, .T. ) ;
#117 = APPROVAL_PERSON_ORGANIZATION ( #177, #132, #145 ) ;
#118 = PERSON_AND_ORGANIZATION ( #148, #191 ) ;
#119 = DIRECTION ( 'NONE',  ( -3.491481338843133355E-15, 0.0000000000000000000, -1.000000000000000000 ) ) ;
#120 = DIRECTION ( 'NONE',  ( -3.491481338843133355E-15, 0.0000000000000000000, -1.000000000000000000 ) ) ;
#121 = CC_DESIGN_DATE_AND_TIME_ASSIGNMENT ( #152, #136, ( #170 ) ) ;
#122 = COORDINATED_UNIVERSAL_TIME_OFFSET ( 1, 0, .AHEAD. ) ;
#123 = SECURITY_CLASSIFICATION ( '', '', #54 ) ;
#124 = EDGE_LOOP ( 'NONE', ( #46 ) ) ;
#125 = DIRECTION ( 'NONE',  ( 1.000000000000000000, 0.0000000000000000000, -3.965082230804130614E-15 ) ) ;
#126 = DATE_AND_TIME ( #109, #172 ) ;
#127 = EDGE_LOOP ( 'NONE', ( #15 ) ) ;
#128 = CARTESIAN_POINT ( 'NONE',  ( 2.234548056859605347E-13, 0.0000000000000000000, 64.00000000000000000 ) ) ;
#129 = APPROVAL ( #75, 'UNSPECIFIED' ) ;
#130 = DATE_TIME_ROLE ( 'classification_date' ) ;
#131 =( NAMED_UNIT ( * ) PLANE_ANGLE_UNIT ( ) SI_UNIT ( $, .RADIAN. ) );
#132 = APPROVAL ( #40, 'UNSPECIFIED' ) ;
#133 = PERSON_AND_ORGANIZATION_ROLE ( 'creator' ) ;
#134 = VERTEX_POINT ( 'NONE', #102 ) ;
#135 = COORDINATED_UNIVERSAL_TIME_OFFSET ( 1, 0, .AHEAD. ) ;
#136 = DATE_TIME_ROLE ( 'creation_date' ) ;
#137 = ORIENTED_EDGE ( 'NONE', *, *, #97, .T. ) ;
#138 = DIRECTION ( 'NONE',  ( 3.491481338843133355E-15, -0.0000000000000000000, 1.000000000000000000 ) ) ;
#139 = CIRCLE ( 'NONE', #114, 4.000000000000000000 ) ;
#140 = CIRCLE ( 'NONE', #78, 4.000000000000000000 ) ;
#141 = LOCAL_TIME ( 7, 47, 16.00000000000000000, #198 ) ;
#142 = FACE_OUTER_BOUND ( 'NONE', #153, .T. ) ;
#143 = PLANE ( 'NONE',  #4 ) ;
#144 = APPROVAL_PERSON_ORGANIZATION ( #13, #129, #186 ) ;
#145 = APPROVAL_ROLE ( '' ) ;
#146 = ADVANCED_FACE ( 'NONE', ( #110 ), #94, .T. ) ;
#147 = CARTESIAN_POINT ( 'NONE',  ( 4.000000000000222045, 0.0000000000000000000, 63.49999999999998579 ) ) ;
#148 = PERSON ( 'UNSPECIFIED', 'UNSPECIFIED', 'UNSPECIFIED', ('UNSPECIFIED'), ('UNSPECIFIED'), ('UNSPECIFIED') ) ;
#149 = PLANE ( 'NONE',  #21 ) ;
#150 = PERSON_AND_ORGANIZATION_ROLE ( 'creator' ) ;
#151 = AXIS2_PLACEMENT_3D ( 'NONE', #195, #115, #50 ) ;
#152 = DATE_AND_TIME ( #88, #52 ) ;
#153 = EDGE_LOOP ( 'NONE', ( #5 ) ) ;
#154 = EDGE_LOOP ( 'NONE', ( #184 ) ) ;
#155 = UNCERTAINTY_MEASURE_WITH_UNIT (LENGTH_MEASURE( 1.000000000000000082E-05 ), #49, 'distance_accuracy_value', 'NONE');
#156 = EDGE_LOOP ( 'NONE', ( #137 ) ) ;
#157 = AXIS2_PLACEMENT_3D ( 'NONE', #113, #173, #2 ) ;
#158 = DIRECTION ( 'NONE',  ( 1.000000000000000000, 0.0000000000000000000, -3.491481338843133355E-15 ) ) ;
#159 = EDGE_LOOP ( 'NONE', ( #93 ) ) ;
#160 = DIRECTION ( 'NONE',  ( 3.491481338843133355E-15, -0.0000000000000000000, 1.000000000000000000 ) ) ;
#161 = AXIS2_PLACEMENT_3D ( 'NONE', #167, #80, #194 ) ;
#162 = FACE_BOUND ( 'NONE', #154, .T. ) ;
#163 = DIRECTION ( 'NONE',  ( 3.491481338843133355E-15, -0.0000000000000000000, 1.000000000000000000 ) ) ;
#164 = CC_DESIGN_PERSON_AND_ORGANIZATION_ASSIGNMENT ( #72, #133, ( #18 ) ) ;
#165 = CARTESIAN_POINT ( 'NONE',  ( 0.0000000000000000000, 0.0000000000000000000, 0.0000000000000000000 ) ) ;
#166 = PERSON_AND_ORGANIZATION ( #148, #191 ) ;
#167 = CARTESIAN_POINT ( 'NONE',  ( 2.234548056859605347E-13, 0.0000000000000000000, 64.00000000000000000 ) ) ;
#168 = CC_DESIGN_PERSON_AND_ORGANIZATION_ASSIGNMENT ( #118, #179, ( #123 ) ) ;
#169 = EDGE_LOOP ( 'NONE', ( #86 ) ) ;
#170 = PRODUCT_DEFINITION ( 'UNKNOWN', '', #18, #202 ) ;
#171 = CARTESIAN_POINT ( 'NONE',  ( 4.189777606611760026E-14, 0.0000000000000000000, 12.00000000000000000 ) ) ;
#172 = LOCAL_TIME ( 7, 47, 16.00000000000000000, #91 ) ;
#173 = DIRECTION ( 'NONE',  ( 3.491481338843133355E-15, -0.0000000000000000000, 1.000000000000000000 ) ) ;
#174 = ADVANCED_FACE ( 'NONE', ( #63, #162 ), #111, .T. ) ;
#175 = AXIS2_PLACEMENT_3D ( 'NONE', #171, #138, #1 ) ;
#176 = PERSON_AND_ORGANIZATION ( #148, #191 ) ;
#177 = PERSON_AND_ORGANIZATION ( #148, #191 ) ;
#178 = DIRECTION ( 'NONE',  ( 3.491481338843133355E-15, -0.0000000000000000000, 1.000000000000000000 ) ) ;
#179 = PERSON_AND_ORGANIZATION_ROLE ( 'classification_officer' ) ;
#180 = CARTESIAN_POINT ( 'NONE',  ( 4.275753076543797008E-31, 0.0000000000000000000, 1.224624353272506412E-16 ) ) ;
#181 = CARTESIAN_POINT ( 'NONE',  ( 4.189777606611760026E-14, 0.0000000000000000000, 12.00000000000000000 ) ) ;
#182 = CARTESIAN_POINT ( 'NONE',  ( 4.000000000000000000, 0.0000000000000000000, -1.384346292004528278E-14 ) ) ;
#183 =( NAMED_UNIT ( * ) SI_UNIT ( $, .STERADIAN. ) SOLID_ANGLE_UNIT ( ) );
#184 = ORIENTED_EDGE ( 'NONE', *, *, #112, .F. ) ;
#185 = ADVANCED_FACE ( 'NONE', ( #85, #35 ), #37, .T. ) ;
#186 = APPROVAL_ROLE ( '' ) ;
#187 = PRODUCT ( '334878', '334878', '', ( #79 ) ) ;
#188 = FACE_OUTER_BOUND ( 'NONE', #127, .T. ) ;
#189 = CC_DESIGN_SECURITY_CLASSIFICATION ( #123, ( #18 ) ) ;
#190 = CARTESIAN_POINT ( 'NONE',  ( 2.137876538271898504E-31, 0.0000000000000000000, 6.123121766362532060E-17 ) ) ;
#191 = ORGANIZATION ( 'UNSPECIFIED', 'UNSPECIFIED', '' ) ;
#192 = VERTEX_POINT ( 'NONE', #8 ) ;
#193 = EDGE_CURVE ( 'NONE', #81, #81, #139, .T. ) ;
#194 = DIRECTION ( 'NONE',  ( 1.000000000000000000, 0.0000000000000000000, -3.491481338843133355E-15 ) ) ;
#195 = CARTESIAN_POINT ( 'NONE',  ( 0.0000000000000000000, 0.0000000000000000000, 0.0000000000000000000 ) ) ;
#196 = PERSON_AND_ORGANIZATION_ROLE ( 'design_supplier' ) ;
#197 = APPLICATION_CONTEXT ( 'configuration controlled 3d designs of mechanical parts and assemblies' ) ;
#198 = COORDINATED_UNIVERSAL_TIME_OFFSET ( 1, 0, .AHEAD. ) ;
#199 = EDGE_LOOP ( 'NONE', ( #45 ) ) ;
#200 = APPROVAL_ROLE ( '' ) ;
#201 = CLOSED_SHELL ( 'NONE', ( #76, #39, #174, #146 ) ) ;
#202 = DESIGN_CONTEXT ( 'detailed design', #16, 'design' ) ;
#203 = PRODUCT_DEFINITION_SHAPE ( 'NONE', 'NONE',  #170 ) ;
ENDSEC;
END-ISO-10303-21;
