ISO-10303-21;
HEADER;
FILE_DESCRIPTION (( 'STEP AP203' ),
    '1' );
FILE_NAME ('334877.step',
    '2021-11-09T06:47:15',
    ( '' ),
    ( '' ),
    'SwSTEP 2.0',
    'SolidWorks 2019',
    '' );
FILE_SCHEMA (( 'CONFIG_CONTROL_DESIGN' ));
ENDSEC;

DATA;
#1 = DIRECTION ( 'NONE',  ( -1.000000000000000000, 0.0000000000000000000, 3.491481338843133355E-15 ) ) ;
#2 = PERSON_AND_ORGANIZATION_ROLE ( 'creator' ) ;
#3 = AXIS2_PLACEMENT_3D ( 'NONE', #122, #194, #14 ) ;
#4 = MECHANICAL_CONTEXT ( 'NONE', #90, 'mechanical' ) ;
#5 = EDGE_LOOP ( 'NONE', ( #174 ) ) ;
#6 = ORIENTED_EDGE ( 'NONE', *, *, #34, .T. ) ;
#7 = EDGE_CURVE ( 'NONE', #32, #32, #190, .T. ) ;
#8 = CARTESIAN_POINT ( 'NONE',  ( 2.137876538271898504E-31, 0.0000000000000000000, 6.123121766362532060E-17 ) ) ;
#9 = ORIENTED_EDGE ( 'NONE', *, *, #7, .T. ) ;
#10 = PRODUCT_DEFINITION_FORMATION_WITH_SPECIFIED_SOURCE ( 'ANY', '', #176, .NOT_KNOWN. ) ;
#11 = DIRECTION ( 'NONE',  ( 0.0000000000000000000, 0.0000000000000000000, 1.000000000000000000 ) ) ;
#12 = PRODUCT_DEFINITION_SHAPE ( 'NONE', 'NONE',  #47 ) ;
#13 = CARTESIAN_POINT ( 'NONE',  ( 4.275753076543797008E-31, 0.0000000000000000000, 1.224624353272506412E-16 ) ) ;
#14 = DIRECTION ( 'NONE',  ( 1.000000000000000000, 0.0000000000000000000, -3.491481338843133355E-15 ) ) ;
#15 = VERTEX_POINT ( 'NONE', #70 ) ;
#16 = DATE_TIME_ROLE ( 'classification_date' ) ;
#17 = DATE_AND_TIME ( #46, #26 ) ;
#18 = APPROVAL_PERSON_ORGANIZATION ( #71, #78, #199 ) ;
#19 = DIRECTION ( 'NONE',  ( -3.491481338843133355E-15, 0.0000000000000000000, -1.000000000000000000 ) ) ;
#20 = ADVANCED_FACE ( 'NONE', ( #139, #38 ), #79, .T. ) ;
#21 = AXIS2_PLACEMENT_3D ( 'NONE', #97, #84, #54 ) ;
#22 = CC_DESIGN_APPROVAL ( #201, ( #10 ) ) ;
#23 = PLANE ( 'NONE',  #77 ) ;
#24 = ADVANCED_FACE ( 'NONE', ( #64, #98 ), #44, .T. ) ;
#25 = APPLICATION_PROTOCOL_DEFINITION ( 'international standard', 'config_control_design', 1994, #90 ) ;
#26 = LOCAL_TIME ( 7, 47, 15.00000000000000000, #74 ) ;
#27 = ADVANCED_FACE ( 'NONE', ( #53 ), #111, .T. ) ;
#28 = DIRECTION ( 'NONE',  ( -3.491481338843133355E-15, 0.0000000000000000000, -1.000000000000000000 ) ) ;
#29 = CLOSED_SHELL ( 'NONE', ( #168, #118, #35 ) ) ;
#30 = DIRECTION ( 'NONE',  ( 3.491481338843133355E-15, -0.0000000000000000000, 1.000000000000000000 ) ) ;
#31 = EDGE_CURVE ( 'NONE', #68, #68, #178, .T. ) ;
#32 = VERTEX_POINT ( 'NONE', #66 ) ;
#33 = CALENDAR_DATE ( 2021, 9, 11 ) ;
#34 = EDGE_CURVE ( 'NONE', #100, #100, #42, .T. ) ;
#35 = ADVANCED_FACE ( 'NONE', ( #135 ), #179, .T. ) ;
#36 = APPROVAL_STATUS ( 'not_yet_approved' ) ;
#37 = APPROVAL ( #59, 'UNSPECIFIED' ) ;
#38 = FACE_BOUND ( 'NONE', #125, .T. ) ;
#39 = CARTESIAN_POINT ( 'NONE',  ( 1.902857329669507616E-13, 0.0000000000000000000, 54.50000000000000000 ) ) ;
#40 = CARTESIAN_POINT ( 'NONE',  ( 0.0000000000000000000, 0.0000000000000000000, 0.0000000000000000000 ) ) ;
#41 = DIRECTION ( 'NONE',  ( -1.000000000000000000, 0.0000000000000000000, 3.491481338843133355E-15 ) ) ;
#42 = CIRCLE ( 'NONE', #21, 3.000000000000000000 ) ;
#43 = FACE_OUTER_BOUND ( 'NONE', #110, .T. ) ;
#44 = CYLINDRICAL_SURFACE ( 'NONE', #3, 3.000000000000000000 ) ;
#45 = ORIENTED_EDGE ( 'NONE', *, *, #185, .F. ) ;
#46 = CALENDAR_DATE ( 2021, 9, 11 ) ;
#47 = PRODUCT_DEFINITION ( 'UNKNOWN', '', #10, #164 ) ;
#48 = COORDINATED_UNIVERSAL_TIME_OFFSET ( 1, 0, .AHEAD. ) ;
#49 = LOCAL_TIME ( 7, 47, 15.00000000000000000, #48 ) ;
#50 = DATE_TIME_ROLE ( 'creation_date' ) ;
#51 = AXIS2_PLACEMENT_3D ( 'NONE', #101, #30, #158 ) ;
#52 = CARTESIAN_POINT ( 'NONE',  ( 1.920314736363723472E-13, 0.0000000000000000000, 55.00000000000000000 ) ) ;
#53 = FACE_OUTER_BOUND ( 'NONE', #63, .T. ) ;
#54 = DIRECTION ( 'NONE',  ( 1.000000000000000000, 0.0000000000000000000, -3.469446951953614189E-15 ) ) ;
#55 = EDGE_LOOP ( 'NONE', ( #155 ) ) ;
#56 = AXIS2_PLACEMENT_3D ( 'NONE', #52, #127, #116 ) ;
#57 = ORIENTED_EDGE ( 'NONE', *, *, #185, .T. ) ;
#58 = ADVANCED_BREP_SHAPE_REPRESENTATION ( '334877', ( #171, #106, #82 ), #166 ) ;
#59 = APPROVAL_STATUS ( 'not_yet_approved' ) ;
#60 = FACE_OUTER_BOUND ( 'NONE', #121, .T. ) ;
#61 = DIRECTION ( 'NONE',  ( -1.000000000000000000, 0.0000000000000000000, 3.491481338843133355E-15 ) ) ;
#62 = AXIS2_PLACEMENT_3D ( 'NONE', #8, #112, #41 ) ;
#63 = EDGE_LOOP ( 'NONE', ( #9 ) ) ;
#64 = FACE_OUTER_BOUND ( 'NONE', #124, .T. ) ;
#65 = PRODUCT_RELATED_PRODUCT_CATEGORY ( 'detail', '', ( #176 ) ) ;
#66 = CARTESIAN_POINT ( 'NONE',  ( 2.500000000000192291, 0.0000000000000000000, 54.99999999999999289 ) ) ;
#67 = ORIENTED_EDGE ( 'NONE', *, *, #34, .F. ) ;
#68 = VERTEX_POINT ( 'NONE', #196 ) ;
#69 = DIRECTION ( 'NONE',  ( 3.491481338843133355E-15, -0.0000000000000000000, 1.000000000000000000 ) ) ;
#70 = CARTESIAN_POINT ( 'NONE',  ( 3.000000000000000000, 0.0000000000000000000, -1.035198158120214942E-14 ) ) ;
#71 = PERSON_AND_ORGANIZATION ( #173, #130 ) ;
#72 = EDGE_CURVE ( 'NONE', #126, #126, #128, .T. ) ;
#73 = APPLICATION_PROTOCOL_DEFINITION ( 'international standard', 'config_control_design', 1994, #94 ) ;
#74 = COORDINATED_UNIVERSAL_TIME_OFFSET ( 1, 0, .AHEAD. ) ;
#75 = PERSON_AND_ORGANIZATION ( #173, #130 ) ;
#76 = AXIS2_PLACEMENT_3D ( 'NONE', #152, #28, #133 ) ;
#77 = AXIS2_PLACEMENT_3D ( 'NONE', #80, #169, #1 ) ;
#78 = APPROVAL ( #89, 'UNSPECIFIED' ) ;
#79 = CONICAL_SURFACE ( 'NONE', #76, 2.500000000000000000, 0.7853981633974479459 ) ;
#80 = CARTESIAN_POINT ( 'NONE',  ( 3.142333204958820020E-14, 0.0000000000000000000, 9.000000000000000000 ) ) ;
#81 = CC_DESIGN_DATE_AND_TIME_ASSIGNMENT ( #144, #50, ( #47 ) ) ;
#82 = AXIS2_PLACEMENT_3D ( 'NONE', #86, #11, #115 ) ;
#83 = ORIENTED_EDGE ( 'NONE', *, *, #72, .F. ) ;
#84 = DIRECTION ( 'NONE',  ( 3.491481338843133355E-15, -0.0000000000000000000, 1.000000000000000000 ) ) ;
#85 = DIRECTION ( 'NONE',  ( 3.491481338843133355E-15, -0.0000000000000000000, 1.000000000000000000 ) ) ;
#86 = CARTESIAN_POINT ( 'NONE',  ( 0.0000000000000000000, 0.0000000000000000000, 0.0000000000000000000 ) ) ;
#87 = LOCAL_TIME ( 7, 47, 15.00000000000000000, #161 ) ;
#88 = EDGE_LOOP ( 'NONE', ( #57 ) ) ;
#89 = APPROVAL_STATUS ( 'not_yet_approved' ) ;
#90 = APPLICATION_CONTEXT ( 'configuration controlled 3d designs of mechanical parts and assemblies' ) ;
#91 = ADVANCED_FACE ( 'NONE', ( #198 ), #132, .T. ) ;
#92 = CALENDAR_DATE ( 2021, 9, 11 ) ;
#93 = PERSON_AND_ORGANIZATION_ROLE ( 'design_supplier' ) ;
#94 = APPLICATION_CONTEXT ( 'configuration controlled 3d designs of mechanical parts and assemblies' ) ;
#95 = FACE_OUTER_BOUND ( 'NONE', #88, .T. ) ;
#96 = CC_DESIGN_PERSON_AND_ORGANIZATION_ASSIGNMENT ( #75, #2, ( #10 ) ) ;
#97 = CARTESIAN_POINT ( 'NONE',  ( 3.142333204958820020E-14, 0.0000000000000000000, 9.000000000000000000 ) ) ;
#98 = FACE_OUTER_BOUND ( 'NONE', #5, .T. ) ;
#99 = AXIS2_PLACEMENT_3D ( 'NONE', #40, #160, #154 ) ;
#100 = VERTEX_POINT ( 'NONE', #157 ) ;
#101 = CARTESIAN_POINT ( 'NONE',  ( 3.142333204958820020E-14, 0.0000000000000000000, 9.000000000000000000 ) ) ;
#102 = EDGE_LOOP ( 'NONE', ( #83 ) ) ;
#103 = SECURITY_CLASSIFICATION_LEVEL ( 'unclassified' ) ;
#104 = CALENDAR_DATE ( 2021, 9, 11 ) ;
#105 = COORDINATED_UNIVERSAL_TIME_OFFSET ( 1, 0, .AHEAD. ) ;
#106 = MANIFOLD_SOLID_BREP ( 'Corps-Déplacer/Copier1[2]', #29 ) ;
#107 = APPROVAL_PERSON_ORGANIZATION ( #167, #201, #188 ) ;
#108 = PERSON_AND_ORGANIZATION ( #173, #130 ) ;
#109 = APPROVAL_DATE_TIME ( #202, #78 ) ;
#110 = EDGE_LOOP ( 'NONE', ( #67 ) ) ;
#111 = PLANE ( 'NONE',  #172 ) ;
#112 = DIRECTION ( 'NONE',  ( -3.491481338843133355E-15, 0.0000000000000000000, -1.000000000000000000 ) ) ;
#113 = ORIENTED_EDGE ( 'NONE', *, *, #72, .T. ) ;
#114 = CLOSED_SHELL ( 'NONE', ( #91, #24, #20, #27 ) ) ;
#115 = DIRECTION ( 'NONE',  ( 1.000000000000000000, 0.0000000000000000000, 0.0000000000000000000 ) ) ;
#116 = DIRECTION ( 'NONE',  ( 1.000000000000000000, 0.0000000000000000000, -2.775557561562891351E-15 ) ) ;
#117 = CYLINDRICAL_SURFACE ( 'NONE', #99, 3.000000000000000000 ) ;
#118 = ADVANCED_FACE ( 'NONE', ( #60 ), #23, .F. ) ;
#119 = LOCAL_TIME ( 7, 47, 15.00000000000000000, #105 ) ;
#120 = AXIS2_PLACEMENT_3D ( 'NONE', #186, #19, #61 ) ;
#121 = EDGE_LOOP ( 'NONE', ( #6 ) ) ;
#122 = CARTESIAN_POINT ( 'NONE',  ( 0.0000000000000000000, 0.0000000000000000000, 0.0000000000000000000 ) ) ;
#123 = CC_DESIGN_PERSON_AND_ORGANIZATION_ASSIGNMENT ( #108, #93, ( #10 ) ) ;
#124 = EDGE_LOOP ( 'NONE', ( #113 ) ) ;
#125 = EDGE_LOOP ( 'NONE', ( #177 ) ) ;
#126 = VERTEX_POINT ( 'NONE', #159 ) ;
#127 = DIRECTION ( 'NONE',  ( 3.491481338843133355E-15, -0.0000000000000000000, 1.000000000000000000 ) ) ;
#128 = CIRCLE ( 'NONE', #51, 3.000000000000000000 ) ;
#129 = CC_DESIGN_DATE_AND_TIME_ASSIGNMENT ( #140, #16, ( #150 ) ) ;
#130 = ORGANIZATION ( 'UNSPECIFIED', 'UNSPECIFIED', '' ) ;
#131 = CC_DESIGN_APPROVAL ( #37, ( #47 ) ) ;
#132 = PLANE ( 'NONE',  #120 ) ;
#133 = DIRECTION ( 'NONE',  ( -1.000000000000000000, 0.0000000000000000000, 2.775557561562891351E-15 ) ) ;
#134 = CC_DESIGN_PERSON_AND_ORGANIZATION_ASSIGNMENT ( #149, #183, ( #176 ) ) ;
#135 = FACE_OUTER_BOUND ( 'NONE', #192, .T. ) ;
#136 = PERSON_AND_ORGANIZATION ( #173, #130 ) ;
#137 = DIRECTION ( 'NONE',  ( 3.491481338843133355E-15, -0.0000000000000000000, 1.000000000000000000 ) ) ;
#138 = CC_DESIGN_APPROVAL ( #78, ( #150 ) ) ;
#139 = FACE_OUTER_BOUND ( 'NONE', #55, .T. ) ;
#140 = DATE_AND_TIME ( #104, #203 ) ;
#141 =( NAMED_UNIT ( * ) PLANE_ANGLE_UNIT ( ) SI_UNIT ( $, .RADIAN. ) );
#142 = APPROVAL_ROLE ( '' ) ;
#143 = APPROVAL_DATE_TIME ( #147, #201 ) ;
#144 = DATE_AND_TIME ( #33, #119 ) ;
#145 = AXIS2_PLACEMENT_3D ( 'NONE', #39, #69, #195 ) ;
#146 = UNCERTAINTY_MEASURE_WITH_UNIT (LENGTH_MEASURE( 1.000000000000000082E-05 ), #184, 'distance_accuracy_value', 'NONE');
#147 = DATE_AND_TIME ( #165, #49 ) ;
#148 = PERSON_AND_ORGANIZATION_ROLE ( 'creator' ) ;
#149 = PERSON_AND_ORGANIZATION ( #173, #130 ) ;
#150 = SECURITY_CLASSIFICATION ( '', '', #103 ) ;
#151 = SHAPE_DEFINITION_REPRESENTATION ( #12, #58 ) ;
#152 = CARTESIAN_POINT ( 'NONE',  ( 1.920314736363723472E-13, 0.0000000000000000000, 55.00000000000000000 ) ) ;
#153 = CC_DESIGN_SECURITY_CLASSIFICATION ( #150, ( #10 ) ) ;
#154 = DIRECTION ( 'NONE',  ( 1.000000000000000000, 0.0000000000000000000, -3.491481338843133355E-15 ) ) ;
#155 = ORIENTED_EDGE ( 'NONE', *, *, #31, .T. ) ;
#156 = PERSON_AND_ORGANIZATION_ROLE ( 'classification_officer' ) ;
#157 = CARTESIAN_POINT ( 'NONE',  ( 3.000000000000031086, 0.0000000000000000000, 8.999999999999989342 ) ) ;
#158 = DIRECTION ( 'NONE',  ( 1.000000000000000000, 0.0000000000000000000, -3.469446951953614189E-15 ) ) ;
#159 = CARTESIAN_POINT ( 'NONE',  ( 3.000000000000031086, 0.0000000000000000000, 8.999999999999989342 ) ) ;
#160 = DIRECTION ( 'NONE',  ( 3.491481338843133355E-15, -0.0000000000000000000, 1.000000000000000000 ) ) ;
#161 = COORDINATED_UNIVERSAL_TIME_OFFSET ( 1, 0, .AHEAD. ) ;
#162 = CC_DESIGN_PERSON_AND_ORGANIZATION_ASSIGNMENT ( #189, #148, ( #47 ) ) ;
#163 = APPROVAL_DATE_TIME ( #17, #37 ) ;
#164 = DESIGN_CONTEXT ( 'detailed design', #94, 'design' ) ;
#165 = CALENDAR_DATE ( 2021, 9, 11 ) ;
#166 =( GEOMETRIC_REPRESENTATION_CONTEXT ( 3 ) GLOBAL_UNCERTAINTY_ASSIGNED_CONTEXT ( ( #146 ) ) GLOBAL_UNIT_ASSIGNED_CONTEXT ( ( #184, #141, #182 ) ) REPRESENTATION_CONTEXT ( 'NONE', 'WORKASPACE' ) );
#167 = PERSON_AND_ORGANIZATION ( #173, #130 ) ;
#168 = ADVANCED_FACE ( 'NONE', ( #95, #43 ), #117, .T. ) ;
#169 = DIRECTION ( 'NONE',  ( -3.491481338843133355E-15, 0.0000000000000000000, -1.000000000000000000 ) ) ;
#170 = CC_DESIGN_PERSON_AND_ORGANIZATION_ASSIGNMENT ( #136, #156, ( #150 ) ) ;
#171 = MANIFOLD_SOLID_BREP ( 'Corps-Déplacer/Copier1[1]', #114 ) ;
#172 = AXIS2_PLACEMENT_3D ( 'NONE', #181, #137, #175 ) ;
#173 = PERSON ( 'UNSPECIFIED', 'UNSPECIFIED', 'UNSPECIFIED', ('UNSPECIFIED'), ('UNSPECIFIED'), ('UNSPECIFIED') ) ;
#174 = ORIENTED_EDGE ( 'NONE', *, *, #31, .F. ) ;
#175 = DIRECTION ( 'NONE',  ( 1.000000000000000000, 0.0000000000000000000, -3.491481338843133355E-15 ) ) ;
#176 = PRODUCT ( '334877', '334877', '', ( #4 ) ) ;
#177 = ORIENTED_EDGE ( 'NONE', *, *, #7, .F. ) ;
#178 = CIRCLE ( 'NONE', #145, 3.000000000000000000 ) ;
#179 = PLANE ( 'NONE',  #62 ) ;
#180 = COORDINATED_UNIVERSAL_TIME_OFFSET ( 1, 0, .AHEAD. ) ;
#181 = CARTESIAN_POINT ( 'NONE',  ( 1.920314736363723472E-13, 0.0000000000000000000, 55.00000000000000000 ) ) ;
#182 =( NAMED_UNIT ( * ) SI_UNIT ( $, .STERADIAN. ) SOLID_ANGLE_UNIT ( ) );
#183 = PERSON_AND_ORGANIZATION_ROLE ( 'design_owner' ) ;
#184 =( LENGTH_UNIT ( ) NAMED_UNIT ( * ) SI_UNIT ( .MILLI., .METRE. ) );
#185 = EDGE_CURVE ( 'NONE', #15, #15, #191, .T. ) ;
#186 = CARTESIAN_POINT ( 'NONE',  ( 3.142333204958820020E-14, 0.0000000000000000000, 9.000000000000000000 ) ) ;
#187 = PERSON_AND_ORGANIZATION ( #173, #130 ) ;
#188 = APPROVAL_ROLE ( '' ) ;
#189 = PERSON_AND_ORGANIZATION ( #173, #130 ) ;
#190 = CIRCLE ( 'NONE', #56, 2.500000000000000000 ) ;
#191 = CIRCLE ( 'NONE', #193, 3.000000000000000000 ) ;
#192 = EDGE_LOOP ( 'NONE', ( #45 ) ) ;
#193 = AXIS2_PLACEMENT_3D ( 'NONE', #13, #85, #197 ) ;
#194 = DIRECTION ( 'NONE',  ( 3.491481338843133355E-15, -0.0000000000000000000, 1.000000000000000000 ) ) ;
#195 = DIRECTION ( 'NONE',  ( 1.000000000000000000, 0.0000000000000000000, -4.625929269271485322E-15 ) ) ;
#196 = CARTESIAN_POINT ( 'NONE',  ( 3.000000000000190514, 0.0000000000000000000, 54.49999999999998579 ) ) ;
#197 = DIRECTION ( 'NONE',  ( 1.000000000000000000, 0.0000000000000000000, -3.491481338843133355E-15 ) ) ;
#198 = FACE_OUTER_BOUND ( 'NONE', #102, .T. ) ;
#199 = APPROVAL_ROLE ( '' ) ;
#200 = APPROVAL_PERSON_ORGANIZATION ( #187, #37, #142 ) ;
#201 = APPROVAL ( #36, 'UNSPECIFIED' ) ;
#202 = DATE_AND_TIME ( #92, #87 ) ;
#203 = LOCAL_TIME ( 7, 47, 15.00000000000000000, #180 ) ;
ENDSEC;
END-ISO-10303-21;
