ISO-10303-21;
HEADER;
FILE_DESCRIPTION (( 'STEP AP203' ),
    '1' );
FILE_NAME ('334876.step',
    '2021-11-09T06:47:15',
    ( '' ),
    ( '' ),
    'SwSTEP 2.0',
    'SolidWorks 2019',
    '' );
FILE_SCHEMA (( 'CONFIG_CONTROL_DESIGN' ));
ENDSEC;

DATA;
#1 = DATE_AND_TIME ( #92, #35 ) ;
#2 = EDGE_LOOP ( 'NONE', ( #192 ) ) ;
#3 = CARTESIAN_POINT ( 'NONE',  ( 2.500000000000025757, 0.0000000000000000000, 7.499999999999991118 ) ) ;
#4 = CARTESIAN_POINT ( 'NONE',  ( 4.275753076543797008E-31, 0.0000000000000000000, 1.224624353272506412E-16 ) ) ;
#5 = AXIS2_PLACEMENT_3D ( 'NONE', #89, #166, #34 ) ;
#6 = CARTESIAN_POINT ( 'NONE',  ( 1.920314736363723472E-13, 0.0000000000000000000, 55.00000000000000000 ) ) ;
#7 = COORDINATED_UNIVERSAL_TIME_OFFSET ( 1, 0, .AHEAD. ) ;
#8 = DIRECTION ( 'NONE',  ( 3.491481338843133355E-15, -0.0000000000000000000, 1.000000000000000000 ) ) ;
#9 = CARTESIAN_POINT ( 'NONE',  ( 2.499999999999999556, 0.0000000000000000000, -8.606240911780581169E-15 ) ) ;
#10 = FACE_OUTER_BOUND ( 'NONE', #116, .T. ) ;
#11 = FACE_OUTER_BOUND ( 'NONE', #91, .T. ) ;
#12 = EDGE_CURVE ( 'NONE', #235, #235, #111, .T. ) ;
#13 = MANIFOLD_SOLID_BREP ( 'Corps-Déplacer/Copier1[1]', #18 ) ;
#14 = PERSON_AND_ORGANIZATION ( #108, #109 ) ;
#15 = AXIS2_PLACEMENT_3D ( 'NONE', #88, #158, #218 ) ;
#16 = EDGE_LOOP ( 'NONE', ( #176 ) ) ;
#17 = PERSON_AND_ORGANIZATION_ROLE ( 'classification_officer' ) ;
#18 = CLOSED_SHELL ( 'NONE', ( #66, #144, #95, #232, #113, #205 ) ) ;
#19 = AXIS2_PLACEMENT_3D ( 'NONE', #67, #238, #124 ) ;
#20 = APPROVAL_DATE_TIME ( #102, #28 ) ;
#21 = ORIENTED_EDGE ( 'NONE', *, *, #194, .T. ) ;
#22 = DIRECTION ( 'NONE',  ( 1.000000000000000000, 0.0000000000000000000, -3.491481338843133355E-15 ) ) ;
#23 = EDGE_LOOP ( 'NONE', ( #200 ) ) ;
#24 = PERSON_AND_ORGANIZATION ( #108, #109 ) ;
#25 = FACE_OUTER_BOUND ( 'NONE', #229, .T. ) ;
#26 = AXIS2_PLACEMENT_3D ( 'NONE', #165, #236, #184 ) ;
#27 = APPROVAL_STATUS ( 'not_yet_approved' ) ;
#28 = APPROVAL ( #27, 'UNSPECIFIED' ) ;
#29 = EDGE_LOOP ( 'NONE', ( #59 ) ) ;
#30 = VERTEX_POINT ( 'NONE', #197 ) ;
#31 = FACE_OUTER_BOUND ( 'NONE', #131, .T. ) ;
#32 = DIRECTION ( 'NONE',  ( 1.000000000000000000, 0.0000000000000000000, -3.377381757791134389E-15 ) ) ;
#33 = PERSON_AND_ORGANIZATION ( #108, #109 ) ;
#34 = DIRECTION ( 'NONE',  ( 1.000000000000000000, 0.0000000000000000000, -3.469446951953614978E-15 ) ) ;
#35 = LOCAL_TIME ( 7, 47, 15.00000000000000000, #211 ) ;
#36 = EDGE_LOOP ( 'NONE', ( #94 ) ) ;
#37 = EDGE_CURVE ( 'NONE', #30, #30, #230, .T. ) ;
#38 = CIRCLE ( 'NONE', #99, 3.000000000000000000 ) ;
#39 = CIRCLE ( 'NONE', #186, 2.568148347421859157 ) ;
#40 = APPROVAL_STATUS ( 'not_yet_approved' ) ;
#41 = EDGE_LOOP ( 'NONE', ( #114 ) ) ;
#42 =( LENGTH_UNIT ( ) NAMED_UNIT ( * ) SI_UNIT ( .MILLI., .METRE. ) );
#43 = DIRECTION ( 'NONE',  ( -3.491481338843133355E-15, 0.0000000000000000000, -1.000000000000000000 ) ) ;
#44 = PERSON_AND_ORGANIZATION ( #108, #109 ) ;
#45 = APPROVAL_DATE_TIME ( #203, #190 ) ;
#46 = DIRECTION ( 'NONE',  ( 1.000000000000000000, 0.0000000000000000000, -3.491481338843133355E-15 ) ) ;
#47 = AXIS2_PLACEMENT_3D ( 'NONE', #206, #104, #187 ) ;
#48 = APPROVAL_STATUS ( 'not_yet_approved' ) ;
#49 = CALENDAR_DATE ( 2021, 9, 11 ) ;
#50 = DIRECTION ( 'NONE',  ( 1.000000000000000000, 0.0000000000000000000, -4.625929269271485322E-15 ) ) ;
#51 = COORDINATED_UNIVERSAL_TIME_OFFSET ( 1, 0, .AHEAD. ) ;
#52 = APPLICATION_CONTEXT ( 'configuration controlled 3d designs of mechanical parts and assemblies' ) ;
#53 = DIRECTION ( 'NONE',  ( -1.000000000000000000, 0.0000000000000000000, 2.775557561562891351E-15 ) ) ;
#54 = CARTESIAN_POINT ( 'NONE',  ( 1.902857329669507616E-13, 0.0000000000000000000, 54.50000000000000000 ) ) ;
#55 = CONICAL_SURFACE ( 'NONE', #167, 2.500000000000000000, 0.7853981633974479459 ) ;
#56 = TOROIDAL_SURFACE ( 'NONE', #74, 4.500000000000000000, 2.000000000000000000 ) ;
#57 = VERTEX_POINT ( 'NONE', #162 ) ;
#58 = CIRCLE ( 'NONE', #47, 2.500000000000000000 ) ;
#59 = ORIENTED_EDGE ( 'NONE', *, *, #209, .F. ) ;
#60 = VERTEX_POINT ( 'NONE', #98 ) ;
#61 = FACE_BOUND ( 'NONE', #29, .T. ) ;
#62 =( NAMED_UNIT ( * ) SI_UNIT ( $, .STERADIAN. ) SOLID_ANGLE_UNIT ( ) );
#63 = CYLINDRICAL_SURFACE ( 'NONE', #15, 2.499999999999999556 ) ;
#64 = FACE_OUTER_BOUND ( 'NONE', #76, .T. ) ;
#65 = MECHANICAL_CONTEXT ( 'NONE', #147, 'mechanical' ) ;
#66 = ADVANCED_FACE ( 'NONE', ( #161, #68 ), #103, .T. ) ;
#67 = CARTESIAN_POINT ( 'NONE',  ( 2.618611004132350016E-14, 0.0000000000000000000, 7.500000000000000000 ) ) ;
#68 = FACE_OUTER_BOUND ( 'NONE', #78, .T. ) ;
#69 = CLOSED_SHELL ( 'NONE', ( #214, #172, #181 ) ) ;
#70 = CC_DESIGN_DATE_AND_TIME_ASSIGNMENT ( #217, #201, ( #148 ) ) ;
#71 = SECURITY_CLASSIFICATION_LEVEL ( 'unclassified' ) ;
#72 = PERSON_AND_ORGANIZATION ( #108, #109 ) ;
#73 = ORIENTED_EDGE ( 'NONE', *, *, #12, .F. ) ;
#74 = AXIS2_PLACEMENT_3D ( 'NONE', #82, #120, #22 ) ;
#75 = CONICAL_SURFACE ( 'NONE', #207, 3.000000000000000000, 0.2617993877991428020 ) ;
#76 = EDGE_LOOP ( 'NONE', ( #196 ) ) ;
#77 = DIRECTION ( 'NONE',  ( 0.0000000000000000000, 0.0000000000000000000, 1.000000000000000000 ) ) ;
#78 = EDGE_LOOP ( 'NONE', ( #157 ) ) ;
#79 = CARTESIAN_POINT ( 'NONE',  ( 0.0000000000000000000, 0.0000000000000000000, 0.0000000000000000000 ) ) ;
#80 = CC_DESIGN_PERSON_AND_ORGANIZATION_ASSIGNMENT ( #72, #17, ( #105 ) ) ;
#81 = FACE_BOUND ( 'NONE', #2, .T. ) ;
#82 = CARTESIAN_POINT ( 'NONE',  ( 2.618611004132350016E-14, 0.0000000000000000000, 7.500000000000000000 ) ) ;
#83 = DIRECTION ( 'NONE',  ( 3.491481338843133355E-15, -0.0000000000000000000, 1.000000000000000000 ) ) ;
#84 = SHAPE_DEFINITION_REPRESENTATION ( #110, #168 ) ;
#85 = DIRECTION ( 'NONE',  ( 3.491481338843133355E-15, -0.0000000000000000000, 1.000000000000000000 ) ) ;
#86 = FACE_OUTER_BOUND ( 'NONE', #36, .T. ) ;
#87 = APPROVAL_PERSON_ORGANIZATION ( #222, #174, #180 ) ;
#88 = CARTESIAN_POINT ( 'NONE',  ( 0.0000000000000000000, 0.0000000000000000000, 0.0000000000000000000 ) ) ;
#89 = CARTESIAN_POINT ( 'NONE',  ( 2.618611004132350016E-14, 0.0000000000000000000, 7.500000000000000000 ) ) ;
#90 = MANIFOLD_SOLID_BREP ( 'Corps-Déplacer/Copier1[2]', #69 ) ;
#91 = EDGE_LOOP ( 'NONE', ( #73 ) ) ;
#92 = CALENDAR_DATE ( 2021, 9, 11 ) ;
#93 = COORDINATED_UNIVERSAL_TIME_OFFSET ( 1, 0, .AHEAD. ) ;
#94 = ORIENTED_EDGE ( 'NONE', *, *, #37, .F. ) ;
#95 = ADVANCED_FACE ( 'NONE', ( #164 ), #240, .T. ) ;
#96 = CARTESIAN_POINT ( 'NONE',  ( 2.500000000000192291, 0.0000000000000000000, 54.99999999999999289 ) ) ;
#97 = PLANE ( 'NONE',  #189 ) ;
#98 = CARTESIAN_POINT ( 'NONE',  ( 3.000000000000190514, 0.0000000000000000000, 54.49999999999998579 ) ) ;
#99 = AXIS2_PLACEMENT_3D ( 'NONE', #54, #121, #50 ) ;
#100 = APPROVAL_ROLE ( '' ) ;
#101 = DIRECTION ( 'NONE',  ( 1.000000000000000000, 0.0000000000000000000, -3.491481338843133355E-15 ) ) ;
#102 = DATE_AND_TIME ( #183, #138 ) ;
#103 = CYLINDRICAL_SURFACE ( 'NONE', #26, 3.000000000000000000 ) ;
#104 = DIRECTION ( 'NONE',  ( 3.491481338843133355E-15, -0.0000000000000000000, 1.000000000000000000 ) ) ;
#105 = SECURITY_CLASSIFICATION ( '', '', #71 ) ;
#106 = FACE_OUTER_BOUND ( 'NONE', #149, .T. ) ;
#107 = CC_DESIGN_PERSON_AND_ORGANIZATION_ASSIGNMENT ( #140, #237, ( #151 ) ) ;
#108 = PERSON ( 'UNSPECIFIED', 'UNSPECIFIED', 'UNSPECIFIED', ('UNSPECIFIED'), ('UNSPECIFIED'), ('UNSPECIFIED') ) ;
#109 = ORGANIZATION ( 'UNSPECIFIED', 'UNSPECIFIED', '' ) ;
#110 = PRODUCT_DEFINITION_SHAPE ( 'NONE', 'NONE',  #148 ) ;
#111 = CIRCLE ( 'NONE', #155, 2.499999999999999556 ) ;
#112 = DATE_TIME_ROLE ( 'classification_date' ) ;
#113 = ADVANCED_FACE ( 'NONE', ( #81, #86 ), #75, .T. ) ;
#114 = ORIENTED_EDGE ( 'NONE', *, *, #159, .F. ) ;
#115 = CARTESIAN_POINT ( 'NONE',  ( 2.568148347421887578, 0.0000000000000000000, 8.017638090205018386 ) ) ;
#116 = EDGE_LOOP ( 'NONE', ( #210 ) ) ;
#117 = PLANE ( 'NONE',  #19 ) ;
#118 = CALENDAR_DATE ( 2021, 9, 11 ) ;
#119 = DIRECTION ( 'NONE',  ( -3.491481338843133355E-15, 0.0000000000000000000, -1.000000000000000000 ) ) ;
#120 = DIRECTION ( 'NONE',  ( 3.491481338843133355E-15, -0.0000000000000000000, 1.000000000000000000 ) ) ;
#121 = DIRECTION ( 'NONE',  ( 3.491481338843133355E-15, -0.0000000000000000000, 1.000000000000000000 ) ) ;
#122 = PERSON_AND_ORGANIZATION ( #108, #109 ) ;
#123 = DIRECTION ( 'NONE',  ( 3.491481338843133355E-15, -0.0000000000000000000, 1.000000000000000000 ) ) ;
#124 = DIRECTION ( 'NONE',  ( -1.000000000000000000, 0.0000000000000000000, 3.491481338843133355E-15 ) ) ;
#125 =( GEOMETRIC_REPRESENTATION_CONTEXT ( 3 ) GLOBAL_UNCERTAINTY_ASSIGNED_CONTEXT ( ( #191 ) ) GLOBAL_UNIT_ASSIGNED_CONTEXT ( ( #42, #239, #62 ) ) REPRESENTATION_CONTEXT ( 'NONE', 'WORKASPACE' ) );
#126 = CC_DESIGN_PERSON_AND_ORGANIZATION_ASSIGNMENT ( #44, #154, ( #226 ) ) ;
#127 = PRODUCT_RELATED_PRODUCT_CATEGORY ( 'detail', '', ( #151 ) ) ;
#128 = LOCAL_TIME ( 7, 47, 15.00000000000000000, #7 ) ;
#129 = APPROVAL_PERSON_ORGANIZATION ( #33, #190, #142 ) ;
#130 = CC_DESIGN_DATE_AND_TIME_ASSIGNMENT ( #1, #112, ( #105 ) ) ;
#131 = EDGE_LOOP ( 'NONE', ( #169 ) ) ;
#132 = CC_DESIGN_SECURITY_CLASSIFICATION ( #105, ( #226 ) ) ;
#133 = APPLICATION_PROTOCOL_DEFINITION ( 'international standard', 'config_control_design', 1994, #52 ) ;
#134 = APPROVAL_DATE_TIME ( #136, #174 ) ;
#135 = DIRECTION ( 'NONE',  ( -3.491481338843133355E-15, 0.0000000000000000000, -1.000000000000000000 ) ) ;
#136 = DATE_AND_TIME ( #118, #193 ) ;
#137 = DIRECTION ( 'NONE',  ( 1.000000000000000000, 0.0000000000000000000, -3.469446951953614189E-15 ) ) ;
#138 = LOCAL_TIME ( 7, 47, 15.00000000000000000, #175 ) ;
#139 = DIRECTION ( 'NONE',  ( 1.000000000000000000, 0.0000000000000000000, -3.469446951953614189E-15 ) ) ;
#140 = PERSON_AND_ORGANIZATION ( #108, #109 ) ;
#141 = CARTESIAN_POINT ( 'NONE',  ( 2.618611004132350016E-14, 0.0000000000000000000, 7.500000000000000000 ) ) ;
#142 = APPROVAL_ROLE ( '' ) ;
#143 = CARTESIAN_POINT ( 'NONE',  ( 3.362062739352121186E-14, 0.0000000000000000000, 9.629330398959274007 ) ) ;
#144 = ADVANCED_FACE ( 'NONE', ( #64, #61 ), #55, .T. ) ;
#145 = AXIS2_PLACEMENT_3D ( 'NONE', #221, #85, #137 ) ;
#146 = DESIGN_CONTEXT ( 'detailed design', #52, 'design' ) ;
#147 = APPLICATION_CONTEXT ( 'configuration controlled 3d designs of mechanical parts and assemblies' ) ;
#148 = PRODUCT_DEFINITION ( 'UNKNOWN', '', #226, #146 ) ;
#149 = EDGE_LOOP ( 'NONE', ( #21 ) ) ;
#150 = EDGE_LOOP ( 'NONE', ( #171 ) ) ;
#151 = PRODUCT ( '334876', '334876', '', ( #65 ) ) ;
#152 = EDGE_CURVE ( 'NONE', #60, #60, #38, .T. ) ;
#153 = CIRCLE ( 'NONE', #195, 2.499999999999999556 ) ;
#154 = PERSON_AND_ORGANIZATION_ROLE ( 'creator' ) ;
#155 = AXIS2_PLACEMENT_3D ( 'NONE', #4, #242, #101 ) ;
#156 = APPLICATION_PROTOCOL_DEFINITION ( 'international standard', 'config_control_design', 1994, #147 ) ;
#157 = ORIENTED_EDGE ( 'NONE', *, *, #37, .T. ) ;
#158 = DIRECTION ( 'NONE',  ( 3.491481338843133355E-15, -0.0000000000000000000, 1.000000000000000000 ) ) ;
#159 = EDGE_CURVE ( 'NONE', #231, #231, #39, .T. ) ;
#160 = VERTEX_POINT ( 'NONE', #96 ) ;
#161 = FACE_OUTER_BOUND ( 'NONE', #16, .T. ) ;
#162 = CARTESIAN_POINT ( 'NONE',  ( 2.500000000000025757, 0.0000000000000000000, 7.499999999999991118 ) ) ;
#163 = AXIS2_PLACEMENT_3D ( 'NONE', #182, #119, #202 ) ;
#164 = FACE_OUTER_BOUND ( 'NONE', #23, .T. ) ;
#165 = CARTESIAN_POINT ( 'NONE',  ( 0.0000000000000000000, 0.0000000000000000000, 0.0000000000000000000 ) ) ;
#166 = DIRECTION ( 'NONE',  ( 3.491481338843133355E-15, -0.0000000000000000000, 1.000000000000000000 ) ) ;
#167 = AXIS2_PLACEMENT_3D ( 'NONE', #224, #43, #53 ) ;
#168 = ADVANCED_BREP_SHAPE_REPRESENTATION ( '334876', ( #13, #90, #228 ), #125 ) ;
#169 = ORIENTED_EDGE ( 'NONE', *, *, #12, .T. ) ;
#170 = APPROVAL_PERSON_ORGANIZATION ( #122, #28, #100 ) ;
#171 = ORIENTED_EDGE ( 'NONE', *, *, #227, .F. ) ;
#172 = ADVANCED_FACE ( 'NONE', ( #31, #185 ), #63, .T. ) ;
#173 = CC_DESIGN_APPROVAL ( #190, ( #105 ) ) ;
#174 = APPROVAL ( #40, 'UNSPECIFIED' ) ;
#175 = COORDINATED_UNIVERSAL_TIME_OFFSET ( 1, 0, .AHEAD. ) ;
#176 = ORIENTED_EDGE ( 'NONE', *, *, #152, .F. ) ;
#177 = VERTEX_POINT ( 'NONE', #3 ) ;
#178 = CARTESIAN_POINT ( 'NONE',  ( 2.137876538271898504E-31, 0.0000000000000000000, 6.123121766362532060E-17 ) ) ;
#179 = AXIS2_PLACEMENT_3D ( 'NONE', #6, #204, #46 ) ;
#180 = APPROVAL_ROLE ( '' ) ;
#181 = ADVANCED_FACE ( 'NONE', ( #10 ), #117, .F. ) ;
#182 = CARTESIAN_POINT ( 'NONE',  ( 2.618611004132350016E-14, 0.0000000000000000000, 7.500000000000000000 ) ) ;
#183 = CALENDAR_DATE ( 2021, 9, 11 ) ;
#184 = DIRECTION ( 'NONE',  ( 1.000000000000000000, 0.0000000000000000000, -3.491481338843133355E-15 ) ) ;
#185 = FACE_OUTER_BOUND ( 'NONE', #150, .T. ) ;
#186 = AXIS2_PLACEMENT_3D ( 'NONE', #241, #8, #32 ) ;
#187 = DIRECTION ( 'NONE',  ( 1.000000000000000000, 0.0000000000000000000, -2.775557561562891351E-15 ) ) ;
#188 = FACE_OUTER_BOUND ( 'NONE', #41, .T. ) ;
#189 = AXIS2_PLACEMENT_3D ( 'NONE', #178, #135, #216 ) ;
#190 = APPROVAL ( #48, 'UNSPECIFIED' ) ;
#191 = UNCERTAINTY_MEASURE_WITH_UNIT (LENGTH_MEASURE( 1.000000000000000082E-05 ), #42, 'distance_accuracy_value', 'NONE');
#192 = ORIENTED_EDGE ( 'NONE', *, *, #159, .T. ) ;
#193 = LOCAL_TIME ( 7, 47, 15.00000000000000000, #93 ) ;
#194 = EDGE_CURVE ( 'NONE', #57, #57, #153, .T. ) ;
#195 = AXIS2_PLACEMENT_3D ( 'NONE', #141, #123, #223 ) ;
#196 = ORIENTED_EDGE ( 'NONE', *, *, #152, .T. ) ;
#197 = CARTESIAN_POINT ( 'NONE',  ( 3.000000000000033751, 0.0000000000000000000, 9.629330398959263349 ) ) ;
#198 = CC_DESIGN_PERSON_AND_ORGANIZATION_ASSIGNMENT ( #24, #215, ( #148 ) ) ;
#199 = CALENDAR_DATE ( 2021, 9, 11 ) ;
#200 = ORIENTED_EDGE ( 'NONE', *, *, #209, .T. ) ;
#201 = DATE_TIME_ROLE ( 'creation_date' ) ;
#202 = DIRECTION ( 'NONE',  ( -1.000000000000000000, 0.0000000000000000000, 3.491481338843133355E-15 ) ) ;
#203 = DATE_AND_TIME ( #199, #128 ) ;
#204 = DIRECTION ( 'NONE',  ( 3.491481338843133355E-15, -0.0000000000000000000, 1.000000000000000000 ) ) ;
#205 = ADVANCED_FACE ( 'NONE', ( #25 ), #208, .T. ) ;
#206 = CARTESIAN_POINT ( 'NONE',  ( 1.920314736363723472E-13, 0.0000000000000000000, 55.00000000000000000 ) ) ;
#207 = AXIS2_PLACEMENT_3D ( 'NONE', #143, #83, #139 ) ;
#208 = PLANE ( 'NONE',  #163 ) ;
#209 = EDGE_CURVE ( 'NONE', #160, #160, #58, .T. ) ;
#210 = ORIENTED_EDGE ( 'NONE', *, *, #227, .T. ) ;
#211 = COORDINATED_UNIVERSAL_TIME_OFFSET ( 1, 0, .AHEAD. ) ;
#212 = CC_DESIGN_APPROVAL ( #28, ( #226 ) ) ;
#213 = CC_DESIGN_APPROVAL ( #174, ( #148 ) ) ;
#214 = ADVANCED_FACE ( 'NONE', ( #11 ), #97, .T. ) ;
#215 = PERSON_AND_ORGANIZATION_ROLE ( 'creator' ) ;
#216 = DIRECTION ( 'NONE',  ( -1.000000000000000000, 0.0000000000000000000, 3.491481338843133355E-15 ) ) ;
#217 = DATE_AND_TIME ( #49, #234 ) ;
#218 = DIRECTION ( 'NONE',  ( 1.000000000000000000, 0.0000000000000000000, -3.491481338843133355E-15 ) ) ;
#219 = DIRECTION ( 'NONE',  ( 1.000000000000000000, 0.0000000000000000000, 0.0000000000000000000 ) ) ;
#220 = CC_DESIGN_PERSON_AND_ORGANIZATION_ASSIGNMENT ( #14, #225, ( #226 ) ) ;
#221 = CARTESIAN_POINT ( 'NONE',  ( 3.362062739352121186E-14, 0.0000000000000000000, 9.629330398959274007 ) ) ;
#222 = PERSON_AND_ORGANIZATION ( #108, #109 ) ;
#223 = DIRECTION ( 'NONE',  ( 1.000000000000000000, 0.0000000000000000000, -3.469446951953614978E-15 ) ) ;
#224 = CARTESIAN_POINT ( 'NONE',  ( 1.920314736363723472E-13, 0.0000000000000000000, 55.00000000000000000 ) ) ;
#225 = PERSON_AND_ORGANIZATION_ROLE ( 'design_supplier' ) ;
#226 = PRODUCT_DEFINITION_FORMATION_WITH_SPECIFIED_SOURCE ( 'ANY', '', #151, .NOT_KNOWN. ) ;
#227 = EDGE_CURVE ( 'NONE', #177, #177, #243, .T. ) ;
#228 = AXIS2_PLACEMENT_3D ( 'NONE', #79, #77, #219 ) ;
#229 = EDGE_LOOP ( 'NONE', ( #233 ) ) ;
#230 = CIRCLE ( 'NONE', #145, 3.000000000000000000 ) ;
#231 = VERTEX_POINT ( 'NONE', #115 ) ;
#232 = ADVANCED_FACE ( 'NONE', ( #106, #188 ), #56, .F. ) ;
#233 = ORIENTED_EDGE ( 'NONE', *, *, #194, .F. ) ;
#234 = LOCAL_TIME ( 7, 47, 15.00000000000000000, #51 ) ;
#235 = VERTEX_POINT ( 'NONE', #9 ) ;
#236 = DIRECTION ( 'NONE',  ( 3.491481338843133355E-15, -0.0000000000000000000, 1.000000000000000000 ) ) ;
#237 = PERSON_AND_ORGANIZATION_ROLE ( 'design_owner' ) ;
#238 = DIRECTION ( 'NONE',  ( -3.491481338843133355E-15, 0.0000000000000000000, -1.000000000000000000 ) ) ;
#239 =( NAMED_UNIT ( * ) PLANE_ANGLE_UNIT ( ) SI_UNIT ( $, .RADIAN. ) );
#240 = PLANE ( 'NONE',  #179 ) ;
#241 = CARTESIAN_POINT ( 'NONE',  ( 2.799343377354874550E-14, 0.0000000000000000000, 8.017638090205025492 ) ) ;
#242 = DIRECTION ( 'NONE',  ( 3.491481338843133355E-15, -0.0000000000000000000, 1.000000000000000000 ) ) ;
#243 = CIRCLE ( 'NONE', #5, 2.499999999999999556 ) ;
ENDSEC;
END-ISO-10303-21;
