ISO-10303-21;
HEADER;
FILE_DESCRIPTION (( 'STEP AP203' ),
    '1' );
FILE_NAME ('334875.step',
    '2021-11-09T06:47:14',
    ( '' ),
    ( '' ),
    'SwSTEP 2.0',
    'SolidWorks 2019',
    '' );
FILE_SCHEMA (( 'CONFIG_CONTROL_DESIGN' ));
ENDSEC;

DATA;
#1 = CARTESIAN_POINT ( 'NONE',  ( 3.000000000000034639, 0.0000000000000000000, 9.995355802743754126 ) ) ;
#2 = ADVANCED_BREP_SHAPE_REPRESENTATION ( '334875', ( #17, #11, #83 ), #180 ) ;
#3 = EDGE_LOOP ( 'NONE', ( #96 ) ) ;
#4 = AXIS2_PLACEMENT_3D ( 'NONE', #55, #219, #12 ) ;
#5 = CALENDAR_DATE ( 2021, 9, 11 ) ;
#6 = ADVANCED_FACE ( 'NONE', ( #142, #198 ), #213, .T. ) ;
#7 = DATE_AND_TIME ( #154, #181 ) ;
#8 = APPROVAL ( #46, 'UNSPECIFIED' ) ;
#9 = APPROVAL_DATE_TIME ( #52, #8 ) ;
#10 = DIRECTION ( 'NONE',  ( -1.000000000000000000, 0.0000000000000000000, 3.491481338843133355E-15 ) ) ;
#11 = MANIFOLD_SOLID_BREP ( 'Corps-Déplacer/Copier1[2]', #58 ) ;
#12 = DIRECTION ( 'NONE',  ( 1.000000000000000000, 0.0000000000000000000, -3.491481338843133355E-15 ) ) ;
#13 = DIRECTION ( 'NONE',  ( -3.491481338843133355E-15, 0.0000000000000000000, -1.000000000000000000 ) ) ;
#14 = EDGE_CURVE ( 'NONE', #226, #226, #136, .T. ) ;
#15 = DIRECTION ( 'NONE',  ( -1.000000000000000000, 0.0000000000000000000, 3.491481338843133355E-15 ) ) ;
#16 = ORIENTED_EDGE ( 'NONE', *, *, #45, .F. ) ;
#17 = MANIFOLD_SOLID_BREP ( 'Corps-Déplacer/Copier1[1]', #210 ) ;
#18 = CARTESIAN_POINT ( 'NONE',  ( 2.000000000000000000, 0.0000000000000000000, -6.860500242359016069E-15 ) ) ;
#19 = CIRCLE ( 'NONE', #157, 1.999999999999999112 ) ;
#20 = CC_DESIGN_PERSON_AND_ORGANIZATION_ASSIGNMENT ( #106, #233, ( #188 ) ) ;
#21 = MECHANICAL_CONTEXT ( 'NONE', #50, 'mechanical' ) ;
#22 = CC_DESIGN_APPROVAL ( #94, ( #188 ) ) ;
#23 = VERTEX_POINT ( 'NONE', #222 ) ;
#24 = EDGE_CURVE ( 'NONE', #37, #37, #39, .T. ) ;
#25 = EDGE_LOOP ( 'NONE', ( #99 ) ) ;
#26 = CC_DESIGN_APPROVAL ( #8, ( #115 ) ) ;
#27 = ORIENTED_EDGE ( 'NONE', *, *, #24, .T. ) ;
#28 = AXIS2_PLACEMENT_3D ( 'NONE', #81, #97, #41 ) ;
#29 = EDGE_LOOP ( 'NONE', ( #42 ) ) ;
#30 = PERSON_AND_ORGANIZATION ( #177, #67 ) ;
#31 = APPROVAL_STATUS ( 'not_yet_approved' ) ;
#32 = DIRECTION ( 'NONE',  ( 1.000000000000000000, 0.0000000000000000000, -3.355123878109231823E-15 ) ) ;
#33 = DIRECTION ( 'NONE',  ( 1.000000000000000000, 0.0000000000000000000, -3.469446951953615767E-15 ) ) ;
#34 = CARTESIAN_POINT ( 'NONE',  ( 2.275621176528406125E-14, 0.0000000000000000000, 6.517638090205029933 ) ) ;
#35 = CIRCLE ( 'NONE', #105, 2.068148347421859601 ) ;
#36 = CARTESIAN_POINT ( 'NONE',  ( 1.920314736363723472E-13, 0.0000000000000000000, 55.00000000000000000 ) ) ;
#37 = VERTEX_POINT ( 'NONE', #18 ) ;
#38 = VERTEX_POINT ( 'NONE', #1 ) ;
#39 = CIRCLE ( 'NONE', #4, 2.000000000000000000 ) ;
#40 = DIRECTION ( 'NONE',  ( 3.491481338843133355E-15, -0.0000000000000000000, 1.000000000000000000 ) ) ;
#41 = DIRECTION ( 'NONE',  ( 1.000000000000000000, 0.0000000000000000000, -3.491481338843133355E-15 ) ) ;
#42 = ORIENTED_EDGE ( 'NONE', *, *, #172, .F. ) ;
#43 = PRODUCT ( '334875', '334875', '', ( #21 ) ) ;
#44 = EDGE_LOOP ( 'NONE', ( #66 ) ) ;
#45 = EDGE_CURVE ( 'NONE', #61, #61, #110, .T. ) ;
#46 = APPROVAL_STATUS ( 'not_yet_approved' ) ;
#47 = DATE_TIME_ROLE ( 'creation_date' ) ;
#48 = AXIS2_PLACEMENT_3D ( 'NONE', #156, #202, #145 ) ;
#49 = ORIENTED_EDGE ( 'NONE', *, *, #220, .T. ) ;
#50 = APPLICATION_CONTEXT ( 'configuration controlled 3d designs of mechanical parts and assemblies' ) ;
#51 = ORIENTED_EDGE ( 'NONE', *, *, #24, .F. ) ;
#52 = DATE_AND_TIME ( #152, #232 ) ;
#53 = ORIENTED_EDGE ( 'NONE', *, *, #45, .T. ) ;
#54 = FACE_OUTER_BOUND ( 'NONE', #29, .T. ) ;
#55 = CARTESIAN_POINT ( 'NONE',  ( 4.275753076543797008E-31, 0.0000000000000000000, 1.224624353272506412E-16 ) ) ;
#56 = CARTESIAN_POINT ( 'NONE',  ( 3.489859826037728204E-14, 0.0000000000000000000, 9.995355802743764784 ) ) ;
#57 = PLANE ( 'NONE',  #139 ) ;
#58 = CLOSED_SHELL ( 'NONE', ( #137, #211, #125 ) ) ;
#59 = ADVANCED_FACE ( 'NONE', ( #218, #54 ), #84, .F. ) ;
#60 = EDGE_LOOP ( 'NONE', ( #80 ) ) ;
#61 = VERTEX_POINT ( 'NONE', #134 ) ;
#62 = VERTEX_POINT ( 'NONE', #95 ) ;
#63 = EDGE_CURVE ( 'NONE', #38, #38, #162, .T. ) ;
#64 = PRODUCT_DEFINITION_SHAPE ( 'NONE', 'NONE',  #115 ) ;
#65 = AXIS2_PLACEMENT_3D ( 'NONE', #36, #13, #92 ) ;
#66 = ORIENTED_EDGE ( 'NONE', *, *, #14, .T. ) ;
#67 = ORGANIZATION ( 'UNSPECIFIED', 'UNSPECIFIED', '' ) ;
#68 = DATE_AND_TIME ( #212, #153 ) ;
#69 = APPROVAL_ROLE ( '' ) ;
#70 = DIRECTION ( 'NONE',  ( 3.491481338843133355E-15, -0.0000000000000000000, 1.000000000000000000 ) ) ;
#71 = PRODUCT_RELATED_PRODUCT_CATEGORY ( 'detail', '', ( #43 ) ) ;
#72 = DIRECTION ( 'NONE',  ( -3.491481338843133355E-15, 0.0000000000000000000, -1.000000000000000000 ) ) ;
#73 = EDGE_LOOP ( 'NONE', ( #230 ) ) ;
#74 = CARTESIAN_POINT ( 'NONE',  ( 2.094888803305880013E-14, 0.0000000000000000000, 6.000000000000000000 ) ) ;
#75 = EDGE_LOOP ( 'NONE', ( #214 ) ) ;
#76 = PLANE ( 'NONE',  #229 ) ;
#77 = PERSON_AND_ORGANIZATION ( #177, #67 ) ;
#78 = AXIS2_PLACEMENT_3D ( 'NONE', #74, #117, #33 ) ;
#79 = FACE_OUTER_BOUND ( 'NONE', #75, .T. ) ;
#80 = ORIENTED_EDGE ( 'NONE', *, *, #127, .T. ) ;
#81 = CARTESIAN_POINT ( 'NONE',  ( 0.0000000000000000000, 0.0000000000000000000, 0.0000000000000000000 ) ) ;
#82 = CC_DESIGN_PERSON_AND_ORGANIZATION_ASSIGNMENT ( #30, #129, ( #115 ) ) ;
#83 = AXIS2_PLACEMENT_3D ( 'NONE', #186, #184, #101 ) ;
#84 = TOROIDAL_SURFACE ( 'NONE', #120, 3.999999999999999112, 2.000000000000000000 ) ;
#85 = COORDINATED_UNIVERSAL_TIME_OFFSET ( 1, 0, .AHEAD. ) ;
#86 = CC_DESIGN_PERSON_AND_ORGANIZATION_ASSIGNMENT ( #243, #160, ( #43 ) ) ;
#87 = COORDINATED_UNIVERSAL_TIME_OFFSET ( 1, 0, .AHEAD. ) ;
#88 = APPROVAL_PERSON_ORGANIZATION ( #215, #94, #69 ) ;
#89 = APPROVAL_ROLE ( '' ) ;
#90 = FACE_OUTER_BOUND ( 'NONE', #98, .T. ) ;
#91 = DIRECTION ( 'NONE',  ( -1.000000000000000000, 0.0000000000000000000, 3.491481338843133355E-15 ) ) ;
#92 = DIRECTION ( 'NONE',  ( -1.000000000000000000, 0.0000000000000000000, 2.775557561562891351E-15 ) ) ;
#93 = DIRECTION ( 'NONE',  ( 3.491481338843133355E-15, -0.0000000000000000000, 1.000000000000000000 ) ) ;
#94 = APPROVAL ( #193, 'UNSPECIFIED' ) ;
#95 = CARTESIAN_POINT ( 'NONE',  ( 2.068148347421882249, 0.0000000000000000000, 6.517638090205022827 ) ) ;
#96 = ORIENTED_EDGE ( 'NONE', *, *, #127, .F. ) ;
#97 = DIRECTION ( 'NONE',  ( 3.491481338843133355E-15, -0.0000000000000000000, 1.000000000000000000 ) ) ;
#98 = EDGE_LOOP ( 'NONE', ( #51 ) ) ;
#99 = ORIENTED_EDGE ( 'NONE', *, *, #220, .F. ) ;
#100 = DIRECTION ( 'NONE',  ( 3.491481338843133355E-15, -0.0000000000000000000, 1.000000000000000000 ) ) ;
#101 = DIRECTION ( 'NONE',  ( 1.000000000000000000, 0.0000000000000000000, 0.0000000000000000000 ) ) ;
#102 = APPROVAL_PERSON_ORGANIZATION ( #77, #8, #174 ) ;
#103 = ADVANCED_FACE ( 'NONE', ( #130 ), #57, .T. ) ;
#104 = UNCERTAINTY_MEASURE_WITH_UNIT (LENGTH_MEASURE( 1.000000000000000082E-05 ), #119, 'distance_accuracy_value', 'NONE');
#105 = AXIS2_PLACEMENT_3D ( 'NONE', #34, #93, #32 ) ;
#106 = PERSON_AND_ORGANIZATION ( #177, #67 ) ;
#107 = EDGE_LOOP ( 'NONE', ( #49 ) ) ;
#108 = PERSON_AND_ORGANIZATION ( #177, #67 ) ;
#109 = CALENDAR_DATE ( 2021, 9, 11 ) ;
#110 = CIRCLE ( 'NONE', #48, 3.000000000000000000 ) ;
#111 = CC_DESIGN_SECURITY_CLASSIFICATION ( #163, ( #188 ) ) ;
#112 = DIRECTION ( 'NONE',  ( 1.000000000000000000, 0.0000000000000000000, -3.469446951953614189E-15 ) ) ;
#113 = DIRECTION ( 'NONE',  ( 1.000000000000000000, 0.0000000000000000000, -3.491481338843133355E-15 ) ) ;
#114 = DIRECTION ( 'NONE',  ( 1.000000000000000000, 0.0000000000000000000, -3.491481338843133355E-15 ) ) ;
#115 = PRODUCT_DEFINITION ( 'UNKNOWN', '', #188, #209 ) ;
#116 = CIRCLE ( 'NONE', #143, 2.500000000000000000 ) ;
#117 = DIRECTION ( 'NONE',  ( 3.491481338843133355E-15, -0.0000000000000000000, 1.000000000000000000 ) ) ;
#118 = EDGE_LOOP ( 'NONE', ( #53 ) ) ;
#119 =( LENGTH_UNIT ( ) NAMED_UNIT ( * ) SI_UNIT ( .MILLI., .METRE. ) );
#120 = AXIS2_PLACEMENT_3D ( 'NONE', #158, #70, #113 ) ;
#121 = FACE_OUTER_BOUND ( 'NONE', #189, .T. ) ;
#122 = APPLICATION_PROTOCOL_DEFINITION ( 'international standard', 'config_control_design', 1994, #50 ) ;
#123 = DATE_TIME_ROLE ( 'classification_date' ) ;
#124 = APPROVAL_DATE_TIME ( #7, #187 ) ;
#125 = ADVANCED_FACE ( 'NONE', ( #236 ), #132, .F. ) ;
#126 = DATE_AND_TIME ( #109, #223 ) ;
#127 = EDGE_CURVE ( 'NONE', #23, #23, #116, .T. ) ;
#128 = DIRECTION ( 'NONE',  ( 3.491481338843133355E-15, -0.0000000000000000000, 1.000000000000000000 ) ) ;
#129 = PERSON_AND_ORGANIZATION_ROLE ( 'creator' ) ;
#130 = FACE_OUTER_BOUND ( 'NONE', #25, .T. ) ;
#131 = CARTESIAN_POINT ( 'NONE',  ( 2.094888803305880013E-14, 0.0000000000000000000, 6.000000000000000000 ) ) ;
#132 = PLANE ( 'NONE',  #196 ) ;
#133 = FACE_BOUND ( 'NONE', #3, .T. ) ;
#134 = CARTESIAN_POINT ( 'NONE',  ( 3.000000000000190514, 0.0000000000000000000, 54.49999999999998579 ) ) ;
#135 = CYLINDRICAL_SURFACE ( 'NONE', #28, 1.999999999999999556 ) ;
#136 = CIRCLE ( 'NONE', #78, 1.999999999999999112 ) ;
#137 = ADVANCED_FACE ( 'NONE', ( #90 ), #199, .T. ) ;
#138 = ORIENTED_EDGE ( 'NONE', *, *, #63, .F. ) ;
#139 = AXIS2_PLACEMENT_3D ( 'NONE', #240, #178, #91 ) ;
#140 = SECURITY_CLASSIFICATION_LEVEL ( 'unclassified' ) ;
#141 = COORDINATED_UNIVERSAL_TIME_OFFSET ( 1, 0, .AHEAD. ) ;
#142 = FACE_BOUND ( 'NONE', #164, .T. ) ;
#143 = AXIS2_PLACEMENT_3D ( 'NONE', #182, #144, #200 ) ;
#144 = DIRECTION ( 'NONE',  ( 3.491481338843133355E-15, -0.0000000000000000000, 1.000000000000000000 ) ) ;
#145 = DIRECTION ( 'NONE',  ( 1.000000000000000000, 0.0000000000000000000, -4.625929269271485322E-15 ) ) ;
#146 = DIRECTION ( 'NONE',  ( 3.491481338843133355E-15, -0.0000000000000000000, 1.000000000000000000 ) ) ;
#147 = EDGE_LOOP ( 'NONE', ( #27 ) ) ;
#148 = CARTESIAN_POINT ( 'NONE',  ( 2.000000000000019984, 0.0000000000000000000, 5.999999999999992895 ) ) ;
#149 = CARTESIAN_POINT ( 'NONE',  ( 0.0000000000000000000, 0.0000000000000000000, 0.0000000000000000000 ) ) ;
#150 = PERSON_AND_ORGANIZATION ( #177, #67 ) ;
#151 = COORDINATED_UNIVERSAL_TIME_OFFSET ( 1, 0, .AHEAD. ) ;
#152 = CALENDAR_DATE ( 2021, 9, 11 ) ;
#153 = LOCAL_TIME ( 7, 47, 14.00000000000000000, #151 ) ;
#154 = CALENDAR_DATE ( 2021, 9, 11 ) ;
#155 = DIRECTION ( 'NONE',  ( -3.491481338843133355E-15, 0.0000000000000000000, -1.000000000000000000 ) ) ;
#156 = CARTESIAN_POINT ( 'NONE',  ( 1.902857329669507616E-13, 0.0000000000000000000, 54.50000000000000000 ) ) ;
#157 = AXIS2_PLACEMENT_3D ( 'NONE', #225, #40, #224 ) ;
#158 = CARTESIAN_POINT ( 'NONE',  ( 2.094888803305880013E-14, 0.0000000000000000000, 6.000000000000000000 ) ) ;
#159 = FACE_OUTER_BOUND ( 'NONE', #60, .T. ) ;
#160 = PERSON_AND_ORGANIZATION_ROLE ( 'design_owner' ) ;
#161 = CC_DESIGN_DATE_AND_TIME_ASSIGNMENT ( #68, #47, ( #115 ) ) ;
#162 = CIRCLE ( 'NONE', #237, 3.000000000000000000 ) ;
#163 = SECURITY_CLASSIFICATION ( '', '', #140 ) ;
#164 = EDGE_LOOP ( 'NONE', ( #165 ) ) ;
#165 = ORIENTED_EDGE ( 'NONE', *, *, #172, .T. ) ;
#166 = DIRECTION ( 'NONE',  ( 1.000000000000000000, 0.0000000000000000000, -3.491481338843133355E-15 ) ) ;
#167 =( NAMED_UNIT ( * ) PLANE_ANGLE_UNIT ( ) SI_UNIT ( $, .RADIAN. ) );
#168 = CC_DESIGN_PERSON_AND_ORGANIZATION_ASSIGNMENT ( #231, #173, ( #163 ) ) ;
#169 = LOCAL_TIME ( 7, 47, 14.00000000000000000, #141 ) ;
#170 = PERSON_AND_ORGANIZATION_ROLE ( 'creator' ) ;
#171 = APPROVAL_DATE_TIME ( #126, #94 ) ;
#172 = EDGE_CURVE ( 'NONE', #62, #62, #35, .T. ) ;
#173 = PERSON_AND_ORGANIZATION_ROLE ( 'classification_officer' ) ;
#174 = APPROVAL_ROLE ( '' ) ;
#175 = CONICAL_SURFACE ( 'NONE', #65, 2.500000000000000000, 0.7853981633974479459 ) ;
#176 = DIRECTION ( 'NONE',  ( 1.000000000000000000, 0.0000000000000000000, -3.469446951953614189E-15 ) ) ;
#177 = PERSON ( 'UNSPECIFIED', 'UNSPECIFIED', 'UNSPECIFIED', ('UNSPECIFIED'), ('UNSPECIFIED'), ('UNSPECIFIED') ) ;
#178 = DIRECTION ( 'NONE',  ( -3.491481338843133355E-15, 0.0000000000000000000, -1.000000000000000000 ) ) ;
#179 = FACE_OUTER_BOUND ( 'NONE', #118, .T. ) ;
#180 =( GEOMETRIC_REPRESENTATION_CONTEXT ( 3 ) GLOBAL_UNCERTAINTY_ASSIGNED_CONTEXT ( ( #104 ) ) GLOBAL_UNIT_ASSIGNED_CONTEXT ( ( #119, #167, #242 ) ) REPRESENTATION_CONTEXT ( 'NONE', 'WORKASPACE' ) );
#181 = LOCAL_TIME ( 7, 47, 14.00000000000000000, #85 ) ;
#182 = CARTESIAN_POINT ( 'NONE',  ( 1.920314736363723472E-13, 0.0000000000000000000, 55.00000000000000000 ) ) ;
#183 = ADVANCED_FACE ( 'NONE', ( #159 ), #76, .T. ) ;
#184 = DIRECTION ( 'NONE',  ( 0.0000000000000000000, 0.0000000000000000000, 1.000000000000000000 ) ) ;
#185 = FACE_OUTER_BOUND ( 'NONE', #73, .T. ) ;
#186 = CARTESIAN_POINT ( 'NONE',  ( 0.0000000000000000000, 0.0000000000000000000, 0.0000000000000000000 ) ) ;
#187 = APPROVAL ( #31, 'UNSPECIFIED' ) ;
#188 = PRODUCT_DEFINITION_FORMATION_WITH_SPECIFIED_SOURCE ( 'ANY', '', #43, .NOT_KNOWN. ) ;
#189 = EDGE_LOOP ( 'NONE', ( #16 ) ) ;
#190 = CC_DESIGN_PERSON_AND_ORGANIZATION_ASSIGNMENT ( #108, #170, ( #188 ) ) ;
#191 = EDGE_LOOP ( 'NONE', ( #138 ) ) ;
#192 = CC_DESIGN_DATE_AND_TIME_ASSIGNMENT ( #194, #123, ( #163 ) ) ;
#193 = APPROVAL_STATUS ( 'not_yet_approved' ) ;
#194 = DATE_AND_TIME ( #5, #169 ) ;
#195 = CARTESIAN_POINT ( 'NONE',  ( 2.137876538271898504E-31, 0.0000000000000000000, 6.123121766362532060E-17 ) ) ;
#196 = AXIS2_PLACEMENT_3D ( 'NONE', #131, #72, #10 ) ;
#197 = COORDINATED_UNIVERSAL_TIME_OFFSET ( 1, 0, .AHEAD. ) ;
#198 = FACE_OUTER_BOUND ( 'NONE', #191, .T. ) ;
#199 = PLANE ( 'NONE',  #201 ) ;
#200 = DIRECTION ( 'NONE',  ( 1.000000000000000000, 0.0000000000000000000, -2.775557561562891351E-15 ) ) ;
#201 = AXIS2_PLACEMENT_3D ( 'NONE', #195, #155, #15 ) ;
#202 = DIRECTION ( 'NONE',  ( 3.491481338843133355E-15, -0.0000000000000000000, 1.000000000000000000 ) ) ;
#203 = CARTESIAN_POINT ( 'NONE',  ( 2.000000000000019984, 0.0000000000000000000, 5.999999999999992895 ) ) ;
#204 = CYLINDRICAL_SURFACE ( 'NONE', #227, 3.000000000000000000 ) ;
#205 = AXIS2_PLACEMENT_3D ( 'NONE', #216, #221, #112 ) ;
#206 = APPROVAL_PERSON_ORGANIZATION ( #150, #187, #89 ) ;
#207 = ADVANCED_FACE ( 'NONE', ( #179, #133 ), #175, .T. ) ;
#208 = VERTEX_POINT ( 'NONE', #148 ) ;
#209 = DESIGN_CONTEXT ( 'detailed design', #238, 'design' ) ;
#210 = CLOSED_SHELL ( 'NONE', ( #228, #207, #183, #59, #6, #103 ) ) ;
#211 = ADVANCED_FACE ( 'NONE', ( #239, #185 ), #135, .T. ) ;
#212 = CALENDAR_DATE ( 2021, 9, 11 ) ;
#213 = CONICAL_SURFACE ( 'NONE', #205, 3.000000000000000000, 0.2617993877991427465 ) ;
#214 = ORIENTED_EDGE ( 'NONE', *, *, #63, .T. ) ;
#215 = PERSON_AND_ORGANIZATION ( #177, #67 ) ;
#216 = CARTESIAN_POINT ( 'NONE',  ( 3.489859826037728204E-14, 0.0000000000000000000, 9.995355802743764784 ) ) ;
#217 = CC_DESIGN_APPROVAL ( #187, ( #163 ) ) ;
#218 = FACE_OUTER_BOUND ( 'NONE', #107, .T. ) ;
#219 = DIRECTION ( 'NONE',  ( 3.491481338843133355E-15, -0.0000000000000000000, 1.000000000000000000 ) ) ;
#220 = EDGE_CURVE ( 'NONE', #208, #208, #19, .T. ) ;
#221 = DIRECTION ( 'NONE',  ( 3.491481338843133355E-15, -0.0000000000000000000, 1.000000000000000000 ) ) ;
#222 = CARTESIAN_POINT ( 'NONE',  ( 2.500000000000192291, 0.0000000000000000000, 54.99999999999999289 ) ) ;
#223 = LOCAL_TIME ( 7, 47, 14.00000000000000000, #197 ) ;
#224 = DIRECTION ( 'NONE',  ( 1.000000000000000000, 0.0000000000000000000, -3.469446951953615767E-15 ) ) ;
#225 = CARTESIAN_POINT ( 'NONE',  ( 2.094888803305880013E-14, 0.0000000000000000000, 6.000000000000000000 ) ) ;
#226 = VERTEX_POINT ( 'NONE', #203 ) ;
#227 = AXIS2_PLACEMENT_3D ( 'NONE', #149, #100, #166 ) ;
#228 = ADVANCED_FACE ( 'NONE', ( #121, #79 ), #204, .T. ) ;
#229 = AXIS2_PLACEMENT_3D ( 'NONE', #235, #146, #114 ) ;
#230 = ORIENTED_EDGE ( 'NONE', *, *, #14, .F. ) ;
#231 = PERSON_AND_ORGANIZATION ( #177, #67 ) ;
#232 = LOCAL_TIME ( 7, 47, 14.00000000000000000, #87 ) ;
#233 = PERSON_AND_ORGANIZATION_ROLE ( 'design_supplier' ) ;
#234 = SHAPE_DEFINITION_REPRESENTATION ( #64, #2 ) ;
#235 = CARTESIAN_POINT ( 'NONE',  ( 1.920314736363723472E-13, 0.0000000000000000000, 55.00000000000000000 ) ) ;
#236 = FACE_OUTER_BOUND ( 'NONE', #44, .T. ) ;
#237 = AXIS2_PLACEMENT_3D ( 'NONE', #56, #128, #176 ) ;
#238 = APPLICATION_CONTEXT ( 'configuration controlled 3d designs of mechanical parts and assemblies' ) ;
#239 = FACE_OUTER_BOUND ( 'NONE', #147, .T. ) ;
#240 = CARTESIAN_POINT ( 'NONE',  ( 2.094888803305880013E-14, 0.0000000000000000000, 6.000000000000000000 ) ) ;
#241 = APPLICATION_PROTOCOL_DEFINITION ( 'international standard', 'config_control_design', 1994, #238 ) ;
#242 =( NAMED_UNIT ( * ) SI_UNIT ( $, .STERADIAN. ) SOLID_ANGLE_UNIT ( ) );
#243 = PERSON_AND_ORGANIZATION ( #177, #67 ) ;
ENDSEC;
END-ISO-10303-21;
