ISO-10303-21;
HEADER;
FILE_DESCRIPTION (( 'STEP AP203' ),
    '1' );
FILE_NAME ('334874.step',
    '2021-11-09T06:47:14',
    ( '' ),
    ( '' ),
    'SwSTEP 2.0',
    'SolidWorks 2019',
    '' );
FILE_SCHEMA (( 'CONFIG_CONTROL_DESIGN' ));
ENDSEC;

DATA;
#1 = AXIS2_PLACEMENT_3D ( 'NONE', #37, #177, #218 ) ;
#2 = PERSON_AND_ORGANIZATION_ROLE ( 'creator' ) ;
#3 = APPLICATION_CONTEXT ( 'configuration controlled 3d designs of mechanical parts and assemblies' ) ;
#4 = DIRECTION ( 'NONE',  ( 3.491481338843133355E-15, -0.0000000000000000000, 1.000000000000000000 ) ) ;
#5 = ORIENTED_EDGE ( 'NONE', *, *, #17, .T. ) ;
#6 = DIRECTION ( 'NONE',  ( -3.491481338843133355E-15, 0.0000000000000000000, -1.000000000000000000 ) ) ;
#7 = APPROVAL ( #94, 'UNSPECIFIED' ) ;
#8 = SHAPE_DEFINITION_REPRESENTATION ( #110, #189 ) ;
#9 = CIRCLE ( 'NONE', #64, 1.568148347421859601 ) ;
#10 = EDGE_CURVE ( 'NONE', #69, #69, #138, .T. ) ;
#11 = ADVANCED_FACE ( 'NONE', ( #204, #42 ), #181, .T. ) ;
#12 = ORIENTED_EDGE ( 'NONE', *, *, #236, .T. ) ;
#13 = AXIS2_PLACEMENT_3D ( 'NONE', #178, #161, #89 ) ;
#14 = CARTESIAN_POINT ( 'NONE',  ( 1.500000000000000444, 0.0000000000000000000, -5.114759572937450969E-15 ) ) ;
#15 = EDGE_LOOP ( 'NONE', ( #12 ) ) ;
#16 = APPLICATION_PROTOCOL_DEFINITION ( 'international standard', 'config_control_design', 1994, #26 ) ;
#17 = EDGE_CURVE ( 'NONE', #170, #170, #231, .T. ) ;
#18 = CARTESIAN_POINT ( 'NONE',  ( 1.571166602479410010E-14, 0.0000000000000000000, 4.500000000000000000 ) ) ;
#19 = LOCAL_TIME ( 7, 47, 14.00000000000000000, #163 ) ;
#20 = CALENDAR_DATE ( 2021, 9, 11 ) ;
#21 = PLANE ( 'NONE',  #117 ) ;
#22 = FACE_OUTER_BOUND ( 'NONE', #53, .T. ) ;
#23 = DATE_TIME_ROLE ( 'creation_date' ) ;
#24 = PRODUCT_RELATED_PRODUCT_CATEGORY ( 'detail', '', ( #208 ) ) ;
#25 = DIRECTION ( 'NONE',  ( 1.000000000000000000, 0.0000000000000000000, -4.625929269271485322E-15 ) ) ;
#26 = APPLICATION_CONTEXT ( 'configuration controlled 3d designs of mechanical parts and assemblies' ) ;
#27 = DATE_AND_TIME ( #184, #39 ) ;
#28 = PERSON_AND_ORGANIZATION ( #108, #61 ) ;
#29 = AXIS2_PLACEMENT_3D ( 'NONE', #112, #6, #47 ) ;
#30 = CC_DESIGN_PERSON_AND_ORGANIZATION_ASSIGNMENT ( #202, #2, ( #118 ) ) ;
#31 = CARTESIAN_POINT ( 'NONE',  ( 1.500000000000015099, 0.0000000000000000000, 4.499999999999994671 ) ) ;
#32 = AXIS2_PLACEMENT_3D ( 'NONE', #71, #176, #56 ) ;
#33 = APPROVAL_PERSON_ORGANIZATION ( #111, #7, #203 ) ;
#34 = ORIENTED_EDGE ( 'NONE', *, *, #10, .F. ) ;
#35 =( LENGTH_UNIT ( ) NAMED_UNIT ( * ) SI_UNIT ( .MILLI., .METRE. ) );
#36 = APPROVAL_ROLE ( '' ) ;
#37 = CARTESIAN_POINT ( 'NONE',  ( 3.617656912723333329E-14, 0.0000000000000000000, 10.36138120652824846 ) ) ;
#38 = CIRCLE ( 'NONE', #136, 3.000000000000000000 ) ;
#39 = LOCAL_TIME ( 7, 47, 14.00000000000000000, #165 ) ;
#40 = FACE_OUTER_BOUND ( 'NONE', #15, .T. ) ;
#41 = DATE_AND_TIME ( #79, #19 ) ;
#42 = FACE_OUTER_BOUND ( 'NONE', #220, .T. ) ;
#43 = ADVANCED_FACE ( 'NONE', ( #22 ), #148, .T. ) ;
#44 = COORDINATED_UNIVERSAL_TIME_OFFSET ( 1, 0, .AHEAD. ) ;
#45 = DIRECTION ( 'NONE',  ( -3.491481338843133355E-15, 0.0000000000000000000, -1.000000000000000000 ) ) ;
#46 = ADVANCED_FACE ( 'NONE', ( #146 ), #221, .F. ) ;
#47 = DIRECTION ( 'NONE',  ( -1.000000000000000000, 0.0000000000000000000, 3.491481338843133355E-15 ) ) ;
#48 = FACE_OUTER_BOUND ( 'NONE', #51, .T. ) ;
#49 = CIRCLE ( 'NONE', #214, 1.499999999999999556 ) ;
#50 = DIRECTION ( 'NONE',  ( 0.0000000000000000000, 0.0000000000000000000, 1.000000000000000000 ) ) ;
#51 = EDGE_LOOP ( 'NONE', ( #5 ) ) ;
#52 = CC_DESIGN_DATE_AND_TIME_ASSIGNMENT ( #93, #23, ( #68 ) ) ;
#53 = EDGE_LOOP ( 'NONE', ( #72 ) ) ;
#54 = DIRECTION ( 'NONE',  ( 1.000000000000000000, 0.0000000000000000000, -3.469446951953615372E-15 ) ) ;
#55 = CC_DESIGN_APPROVAL ( #116, ( #118 ) ) ;
#56 = DIRECTION ( 'NONE',  ( 1.000000000000000000, 0.0000000000000000000, -3.491481338843133355E-15 ) ) ;
#57 = DATE_TIME_ROLE ( 'classification_date' ) ;
#58 = EDGE_CURVE ( 'NONE', #241, #241, #82, .T. ) ;
#59 = PERSON_AND_ORGANIZATION_ROLE ( 'design_supplier' ) ;
#60 = DIRECTION ( 'NONE',  ( 1.000000000000000000, 0.0000000000000000000, -3.318672264959131022E-15 ) ) ;
#61 = ORGANIZATION ( 'UNSPECIFIED', 'UNSPECIFIED', '' ) ;
#62 = EDGE_CURVE ( 'NONE', #73, #73, #38, .T. ) ;
#63 = ADVANCED_FACE ( 'NONE', ( #133, #135 ), #210, .T. ) ;
#64 = AXIS2_PLACEMENT_3D ( 'NONE', #186, #78, #60 ) ;
#65 = DIRECTION ( 'NONE',  ( 1.000000000000000000, 0.0000000000000000000, -3.469446951953615372E-15 ) ) ;
#66 = EDGE_LOOP ( 'NONE', ( #179 ) ) ;
#67 = CC_DESIGN_APPROVAL ( #7, ( #96 ) ) ;
#68 = PRODUCT_DEFINITION ( 'UNKNOWN', '', #118, #105 ) ;
#69 = VERTEX_POINT ( 'NONE', #121 ) ;
#70 = DIRECTION ( 'NONE',  ( -1.000000000000000000, 0.0000000000000000000, 3.491481338843133355E-15 ) ) ;
#71 = CARTESIAN_POINT ( 'NONE',  ( 4.275753076543797008E-31, 0.0000000000000000000, 1.224624353272506412E-16 ) ) ;
#72 = ORIENTED_EDGE ( 'NONE', *, *, #17, .F. ) ;
#73 = VERTEX_POINT ( 'NONE', #171 ) ;
#74 = CC_DESIGN_SECURITY_CLASSIFICATION ( #96, ( #118 ) ) ;
#75 = CALENDAR_DATE ( 2021, 9, 11 ) ;
#76 = APPROVAL_DATE_TIME ( #27, #7 ) ;
#77 = DIRECTION ( 'NONE',  ( -1.000000000000000000, 0.0000000000000000000, 3.491481338843133355E-15 ) ) ;
#78 = DIRECTION ( 'NONE',  ( 3.491481338843133355E-15, -0.0000000000000000000, 1.000000000000000000 ) ) ;
#79 = CALENDAR_DATE ( 2021, 9, 11 ) ;
#80 = MANIFOLD_SOLID_BREP ( 'Corps-Déplacer/Copier1[2]', #167 ) ;
#81 = EDGE_CURVE ( 'NONE', #145, #145, #9, .T. ) ;
#82 = CIRCLE ( 'NONE', #193, 2.500000000000000000 ) ;
#83 = MANIFOLD_SOLID_BREP ( 'Corps-Déplacer/Copier1[1]', #107 ) ;
#84 = ORIENTED_EDGE ( 'NONE', *, *, #62, .F. ) ;
#85 = CARTESIAN_POINT ( 'NONE',  ( 0.0000000000000000000, 0.0000000000000000000, 0.0000000000000000000 ) ) ;
#86 = EDGE_LOOP ( 'NONE', ( #84 ) ) ;
#87 = APPROVAL_STATUS ( 'not_yet_approved' ) ;
#88 = FACE_OUTER_BOUND ( 'NONE', #195, .T. ) ;
#89 = DIRECTION ( 'NONE',  ( -1.000000000000000000, 0.0000000000000000000, 2.775557561562891351E-15 ) ) ;
#90 = AXIS2_PLACEMENT_3D ( 'NONE', #159, #162, #216 ) ;
#91 = ORIENTED_EDGE ( 'NONE', *, *, #62, .T. ) ;
#92 = PERSON_AND_ORGANIZATION ( #108, #61 ) ;
#93 = DATE_AND_TIME ( #75, #97 ) ;
#94 = APPROVAL_STATUS ( 'not_yet_approved' ) ;
#95 = APPROVAL_STATUS ( 'not_yet_approved' ) ;
#96 = SECURITY_CLASSIFICATION ( '', '', #225 ) ;
#97 = LOCAL_TIME ( 7, 47, 14.00000000000000000, #44 ) ;
#98 = CARTESIAN_POINT ( 'NONE',  ( 0.0000000000000000000, 0.0000000000000000000, 0.0000000000000000000 ) ) ;
#99 = FACE_OUTER_BOUND ( 'NONE', #233, .T. ) ;
#100 = AXIS2_PLACEMENT_3D ( 'NONE', #237, #174, #54 ) ;
#101 = ORIENTED_EDGE ( 'NONE', *, *, #81, .F. ) ;
#102 = PLANE ( 'NONE',  #29 ) ;
#103 = ORIENTED_EDGE ( 'NONE', *, *, #151, .T. ) ;
#104 = MECHANICAL_CONTEXT ( 'NONE', #3, 'mechanical' ) ;
#105 = DESIGN_CONTEXT ( 'detailed design', #26, 'design' ) ;
#106 = COORDINATED_UNIVERSAL_TIME_OFFSET ( 1, 0, .AHEAD. ) ;
#107 = CLOSED_SHELL ( 'NONE', ( #63, #154, #227, #137, #11, #43 ) ) ;
#108 = PERSON ( 'UNSPECIFIED', 'UNSPECIFIED', 'UNSPECIFIED', ('UNSPECIFIED'), ('UNSPECIFIED'), ('UNSPECIFIED') ) ;
#109 = FACE_BOUND ( 'NONE', #172, .T. ) ;
#110 = PRODUCT_DEFINITION_SHAPE ( 'NONE', 'NONE',  #68 ) ;
#111 = PERSON_AND_ORGANIZATION ( #108, #61 ) ;
#112 = CARTESIAN_POINT ( 'NONE',  ( 2.137876538271898504E-31, 0.0000000000000000000, 6.123121766362532060E-17 ) ) ;
#113 = CONICAL_SURFACE ( 'NONE', #13, 2.500000000000000000, 0.7853981633974479459 ) ;
#114 = DIRECTION ( 'NONE',  ( 3.491481338843133355E-15, -0.0000000000000000000, 1.000000000000000000 ) ) ;
#115 = PERSON_AND_ORGANIZATION_ROLE ( 'classification_officer' ) ;
#116 = APPROVAL ( #95, 'UNSPECIFIED' ) ;
#117 = AXIS2_PLACEMENT_3D ( 'NONE', #125, #224, #201 ) ;
#118 = PRODUCT_DEFINITION_FORMATION_WITH_SPECIFIED_SOURCE ( 'ANY', '', #208, .NOT_KNOWN. ) ;
#119 = CC_DESIGN_APPROVAL ( #196, ( #68 ) ) ;
#120 = DIRECTION ( 'NONE',  ( 3.491481338843133355E-15, -0.0000000000000000000, 1.000000000000000000 ) ) ;
#121 = CARTESIAN_POINT ( 'NONE',  ( 3.000000000000035971, 0.0000000000000000000, 10.36138120652823780 ) ) ;
#122 = FACE_OUTER_BOUND ( 'NONE', #205, .T. ) ;
#123 = LOCAL_TIME ( 7, 47, 14.00000000000000000, #106 ) ;
#124 = DIRECTION ( 'NONE',  ( 1.000000000000000000, 0.0000000000000000000, -3.491481338843133355E-15 ) ) ;
#125 = CARTESIAN_POINT ( 'NONE',  ( 1.920314736363723472E-13, 0.0000000000000000000, 55.00000000000000000 ) ) ;
#126 = ORIENTED_EDGE ( 'NONE', *, *, #151, .F. ) ;
#127 =( NAMED_UNIT ( * ) PLANE_ANGLE_UNIT ( ) SI_UNIT ( $, .RADIAN. ) );
#128 = AXIS2_PLACEMENT_3D ( 'NONE', #18, #160, #70 ) ;
#129 = DATE_AND_TIME ( #20, #123 ) ;
#130 = CARTESIAN_POINT ( 'NONE',  ( 3.617656912723333329E-14, 0.0000000000000000000, 10.36138120652824846 ) ) ;
#131 = ADVANCED_FACE ( 'NONE', ( #122 ), #102, .T. ) ;
#132 =( GEOMETRIC_REPRESENTATION_CONTEXT ( 3 ) GLOBAL_UNCERTAINTY_ASSIGNED_CONTEXT ( ( #199 ) ) GLOBAL_UNIT_ASSIGNED_CONTEXT ( ( #35, #127, #235 ) ) REPRESENTATION_CONTEXT ( 'NONE', 'WORKASPACE' ) );
#133 = FACE_OUTER_BOUND ( 'NONE', #86, .T. ) ;
#134 = CALENDAR_DATE ( 2021, 9, 11 ) ;
#135 = FACE_OUTER_BOUND ( 'NONE', #66, .T. ) ;
#136 = AXIS2_PLACEMENT_3D ( 'NONE', #149, #4, #25 ) ;
#137 = ADVANCED_FACE ( 'NONE', ( #48, #188 ), #223, .F. ) ;
#138 = CIRCLE ( 'NONE', #1, 3.000000000000000000 ) ;
#139 = APPROVAL_PERSON_ORGANIZATION ( #200, #196, #36 ) ;
#140 = CC_DESIGN_PERSON_AND_ORGANIZATION_ASSIGNMENT ( #183, #180, ( #68 ) ) ;
#141 = EDGE_LOOP ( 'NONE', ( #91 ) ) ;
#142 = VERTEX_POINT ( 'NONE', #14 ) ;
#143 = CARTESIAN_POINT ( 'NONE',  ( 1.920314736363723472E-13, 0.0000000000000000000, 55.00000000000000000 ) ) ;
#144 = CARTESIAN_POINT ( 'NONE',  ( 1.568148347421877142, 0.0000000000000000000, 5.017638090205022827 ) ) ;
#145 = VERTEX_POINT ( 'NONE', #144 ) ;
#146 = FACE_OUTER_BOUND ( 'NONE', #198, .T. ) ;
#147 = DIRECTION ( 'NONE',  ( 1.000000000000000000, 0.0000000000000000000, -2.775557561562891351E-15 ) ) ;
#148 = PLANE ( 'NONE',  #128 ) ;
#149 = CARTESIAN_POINT ( 'NONE',  ( 1.902857329669507616E-13, 0.0000000000000000000, 54.50000000000000000 ) ) ;
#150 = APPROVAL_DATE_TIME ( #129, #196 ) ;
#151 = EDGE_CURVE ( 'NONE', #219, #219, #49, .T. ) ;
#152 = APPROVAL_ROLE ( '' ) ;
#153 = AXIS2_PLACEMENT_3D ( 'NONE', #213, #156, #124 ) ;
#154 = ADVANCED_FACE ( 'NONE', ( #229, #109 ), #113, .T. ) ;
#155 = ORIENTED_EDGE ( 'NONE', *, *, #236, .F. ) ;
#156 = DIRECTION ( 'NONE',  ( 3.491481338843133355E-15, -0.0000000000000000000, 1.000000000000000000 ) ) ;
#157 = DIRECTION ( 'NONE',  ( 1.000000000000000000, 0.0000000000000000000, 0.0000000000000000000 ) ) ;
#158 = AXIS2_PLACEMENT_3D ( 'NONE', #85, #50, #157 ) ;
#159 = CARTESIAN_POINT ( 'NONE',  ( 0.0000000000000000000, 0.0000000000000000000, 0.0000000000000000000 ) ) ;
#160 = DIRECTION ( 'NONE',  ( -3.491481338843133355E-15, 0.0000000000000000000, -1.000000000000000000 ) ) ;
#161 = DIRECTION ( 'NONE',  ( -3.491481338843133355E-15, 0.0000000000000000000, -1.000000000000000000 ) ) ;
#162 = DIRECTION ( 'NONE',  ( 3.491481338843133355E-15, -0.0000000000000000000, 1.000000000000000000 ) ) ;
#163 = COORDINATED_UNIVERSAL_TIME_OFFSET ( 1, 0, .AHEAD. ) ;
#164 = COORDINATED_UNIVERSAL_TIME_OFFSET ( 1, 0, .AHEAD. ) ;
#165 = COORDINATED_UNIVERSAL_TIME_OFFSET ( 1, 0, .AHEAD. ) ;
#166 = CC_DESIGN_PERSON_AND_ORGANIZATION_ASSIGNMENT ( #226, #59, ( #118 ) ) ;
#167 = CLOSED_SHELL ( 'NONE', ( #131, #240, #46 ) ) ;
#168 = APPROVAL_DATE_TIME ( #206, #116 ) ;
#169 = LOCAL_TIME ( 7, 47, 14.00000000000000000, #164 ) ;
#170 = VERTEX_POINT ( 'NONE', #31 ) ;
#171 = CARTESIAN_POINT ( 'NONE',  ( 3.000000000000190514, 0.0000000000000000000, 54.49999999999998579 ) ) ;
#172 = EDGE_LOOP ( 'NONE', ( #191 ) ) ;
#173 = PERSON_AND_ORGANIZATION ( #108, #61 ) ;
#174 = DIRECTION ( 'NONE',  ( 3.491481338843133355E-15, -0.0000000000000000000, 1.000000000000000000 ) ) ;
#175 = AXIS2_PLACEMENT_3D ( 'NONE', #98, #232, #190 ) ;
#176 = DIRECTION ( 'NONE',  ( 3.491481338843133355E-15, -0.0000000000000000000, 1.000000000000000000 ) ) ;
#177 = DIRECTION ( 'NONE',  ( 3.491481338843133355E-15, -0.0000000000000000000, 1.000000000000000000 ) ) ;
#178 = CARTESIAN_POINT ( 'NONE',  ( 1.920314736363723472E-13, 0.0000000000000000000, 55.00000000000000000 ) ) ;
#179 = ORIENTED_EDGE ( 'NONE', *, *, #10, .T. ) ;
#180 = PERSON_AND_ORGANIZATION_ROLE ( 'creator' ) ;
#181 = CONICAL_SURFACE ( 'NONE', #207, 3.000000000000000000, 0.2617993877991428575 ) ;
#182 = DIRECTION ( 'NONE',  ( 1.000000000000000000, 0.0000000000000000000, -3.469446951953614189E-15 ) ) ;
#183 = PERSON_AND_ORGANIZATION ( #108, #61 ) ;
#184 = CALENDAR_DATE ( 2021, 9, 11 ) ;
#185 = CC_DESIGN_PERSON_AND_ORGANIZATION_ASSIGNMENT ( #173, #239, ( #208 ) ) ;
#186 = CARTESIAN_POINT ( 'NONE',  ( 1.751898975701935175E-14, 0.0000000000000000000, 5.017638090205028156 ) ) ;
#187 = CARTESIAN_POINT ( 'NONE',  ( 1.571166602479410010E-14, 0.0000000000000000000, 4.500000000000000000 ) ) ;
#188 = FACE_OUTER_BOUND ( 'NONE', #215, .T. ) ;
#189 = ADVANCED_BREP_SHAPE_REPRESENTATION ( '334874', ( #83, #80, #158 ), #132 ) ;
#190 = DIRECTION ( 'NONE',  ( 1.000000000000000000, 0.0000000000000000000, -3.491481338843133355E-15 ) ) ;
#191 = ORIENTED_EDGE ( 'NONE', *, *, #58, .F. ) ;
#192 = CYLINDRICAL_SURFACE ( 'NONE', #90, 1.500000000000000000 ) ;
#193 = AXIS2_PLACEMENT_3D ( 'NONE', #143, #114, #147 ) ;
#194 = APPROVAL_PERSON_ORGANIZATION ( #28, #116, #152 ) ;
#195 = EDGE_LOOP ( 'NONE', ( #126 ) ) ;
#196 = APPROVAL ( #87, 'UNSPECIFIED' ) ;
#197 = APPLICATION_PROTOCOL_DEFINITION ( 'international standard', 'config_control_design', 1994, #3 ) ;
#198 = EDGE_LOOP ( 'NONE', ( #103 ) ) ;
#199 = UNCERTAINTY_MEASURE_WITH_UNIT (LENGTH_MEASURE( 1.000000000000000082E-05 ), #35, 'distance_accuracy_value', 'NONE');
#200 = PERSON_AND_ORGANIZATION ( #108, #61 ) ;
#201 = DIRECTION ( 'NONE',  ( 1.000000000000000000, 0.0000000000000000000, -3.491481338843133355E-15 ) ) ;
#202 = PERSON_AND_ORGANIZATION ( #108, #61 ) ;
#203 = APPROVAL_ROLE ( '' ) ;
#204 = FACE_BOUND ( 'NONE', #234, .T. ) ;
#205 = EDGE_LOOP ( 'NONE', ( #155 ) ) ;
#206 = DATE_AND_TIME ( #134, #169 ) ;
#207 = AXIS2_PLACEMENT_3D ( 'NONE', #130, #242, #182 ) ;
#208 = PRODUCT ( '334874', '334874', '', ( #104 ) ) ;
#209 = CIRCLE ( 'NONE', #32, 1.500000000000000444 ) ;
#210 = CYLINDRICAL_SURFACE ( 'NONE', #175, 3.000000000000000000 ) ;
#211 = CC_DESIGN_PERSON_AND_ORGANIZATION_ASSIGNMENT ( #92, #115, ( #96 ) ) ;
#212 = ORIENTED_EDGE ( 'NONE', *, *, #58, .T. ) ;
#213 = CARTESIAN_POINT ( 'NONE',  ( 1.571166602479410010E-14, 0.0000000000000000000, 4.500000000000000000 ) ) ;
#214 = AXIS2_PLACEMENT_3D ( 'NONE', #187, #120, #65 ) ;
#215 = EDGE_LOOP ( 'NONE', ( #101 ) ) ;
#216 = DIRECTION ( 'NONE',  ( 1.000000000000000000, 0.0000000000000000000, -3.491481338843133355E-15 ) ) ;
#217 = ORIENTED_EDGE ( 'NONE', *, *, #81, .T. ) ;
#218 = DIRECTION ( 'NONE',  ( 1.000000000000000000, 0.0000000000000000000, -3.469446951953614189E-15 ) ) ;
#219 = VERTEX_POINT ( 'NONE', #243 ) ;
#220 = EDGE_LOOP ( 'NONE', ( #34 ) ) ;
#221 = PLANE ( 'NONE',  #238 ) ;
#222 = CARTESIAN_POINT ( 'NONE',  ( 2.500000000000192291, 0.0000000000000000000, 54.99999999999999289 ) ) ;
#223 = TOROIDAL_SURFACE ( 'NONE', #153, 3.499999999999999556, 2.000000000000000000 ) ;
#224 = DIRECTION ( 'NONE',  ( 3.491481338843133355E-15, -0.0000000000000000000, 1.000000000000000000 ) ) ;
#225 = SECURITY_CLASSIFICATION_LEVEL ( 'unclassified' ) ;
#226 = PERSON_AND_ORGANIZATION ( #108, #61 ) ;
#227 = ADVANCED_FACE ( 'NONE', ( #99 ), #21, .T. ) ;
#228 = CARTESIAN_POINT ( 'NONE',  ( 1.571166602479410010E-14, 0.0000000000000000000, 4.500000000000000000 ) ) ;
#229 = FACE_OUTER_BOUND ( 'NONE', #141, .T. ) ;
#230 = CC_DESIGN_DATE_AND_TIME_ASSIGNMENT ( #41, #57, ( #96 ) ) ;
#231 = CIRCLE ( 'NONE', #100, 1.499999999999999556 ) ;
#232 = DIRECTION ( 'NONE',  ( 3.491481338843133355E-15, -0.0000000000000000000, 1.000000000000000000 ) ) ;
#233 = EDGE_LOOP ( 'NONE', ( #212 ) ) ;
#234 = EDGE_LOOP ( 'NONE', ( #217 ) ) ;
#235 =( NAMED_UNIT ( * ) SI_UNIT ( $, .STERADIAN. ) SOLID_ANGLE_UNIT ( ) );
#236 = EDGE_CURVE ( 'NONE', #142, #142, #209, .T. ) ;
#237 = CARTESIAN_POINT ( 'NONE',  ( 1.571166602479410010E-14, 0.0000000000000000000, 4.500000000000000000 ) ) ;
#238 = AXIS2_PLACEMENT_3D ( 'NONE', #228, #45, #77 ) ;
#239 = PERSON_AND_ORGANIZATION_ROLE ( 'design_owner' ) ;
#240 = ADVANCED_FACE ( 'NONE', ( #40, #88 ), #192, .T. ) ;
#241 = VERTEX_POINT ( 'NONE', #222 ) ;
#242 = DIRECTION ( 'NONE',  ( 3.491481338843133355E-15, -0.0000000000000000000, 1.000000000000000000 ) ) ;
#243 = CARTESIAN_POINT ( 'NONE',  ( 1.500000000000015099, 0.0000000000000000000, 4.499999999999994671 ) ) ;
ENDSEC;
END-ISO-10303-21;
