ISO-10303-21;
HEADER;
FILE_DESCRIPTION (( 'STEP AP203' ),
    '1' );
FILE_NAME ('334872.step',
    '2021-11-09T06:47:13',
    ( '' ),
    ( '' ),
    'SwSTEP 2.0',
    'SolidWorks 2019',
    '' );
FILE_SCHEMA (( 'CONFIG_CONTROL_DESIGN' ));
ENDSEC;

DATA;
#1 = CC_DESIGN_APPROVAL ( #8, ( #146 ) ) ;
#2 = PRODUCT_DEFINITION ( 'UNKNOWN', '', #9, #188 ) ;
#3 = ADVANCED_FACE ( 'NONE', ( #144 ), #179, .T. ) ;
#4 =( GEOMETRIC_REPRESENTATION_CONTEXT ( 3 ) GLOBAL_UNCERTAINTY_ASSIGNED_CONTEXT ( ( #148 ) ) GLOBAL_UNIT_ASSIGNED_CONTEXT ( ( #129, #157, #55 ) ) REPRESENTATION_CONTEXT ( 'NONE', 'WORKASPACE' ) );
#5 = DIRECTION ( 'NONE',  ( 3.491481338843133355E-15, -0.0000000000000000000, 1.000000000000000000 ) ) ;
#6 = PRODUCT_RELATED_PRODUCT_CATEGORY ( 'detail', '', ( #79 ) ) ;
#7 = EDGE_LOOP ( 'NONE', ( #217 ) ) ;
#8 = APPROVAL ( #224, 'UNSPECIFIED' ) ;
#9 = PRODUCT_DEFINITION_FORMATION_WITH_SPECIFIED_SOURCE ( 'ANY', '', #79, .NOT_KNOWN. ) ;
#10 = FACE_OUTER_BOUND ( 'NONE', #95, .T. ) ;
#11 = DIRECTION ( 'NONE',  ( 3.491481338843133355E-15, -0.0000000000000000000, 1.000000000000000000 ) ) ;
#12 = CARTESIAN_POINT ( 'NONE',  ( 1.000000000000009992, 0.0000000000000000000, 2.999999999999996003 ) ) ;
#13 = CIRCLE ( 'NONE', #56, 0.9999999999999995559 ) ;
#14 = PERSON_AND_ORGANIZATION ( #199, #141 ) ;
#15 = DIRECTION ( 'NONE',  ( 3.491481338843133355E-15, -0.0000000000000000000, 1.000000000000000000 ) ) ;
#16 = APPROVAL_DATE_TIME ( #191, #8 ) ;
#17 = DIRECTION ( 'NONE',  ( 1.000000000000000000, 0.0000000000000000000, -3.491481338843133355E-15 ) ) ;
#18 = APPROVAL_DATE_TIME ( #65, #84 ) ;
#19 = COORDINATED_UNIVERSAL_TIME_OFFSET ( 1, 0, .AHEAD. ) ;
#20 = AXIS2_PLACEMENT_3D ( 'NONE', #237, #11, #87 ) ;
#21 = AXIS2_PLACEMENT_3D ( 'NONE', #151, #101, #149 ) ;
#22 = CLOSED_SHELL ( 'NONE', ( #197, #175, #100 ) ) ;
#23 = DIRECTION ( 'NONE',  ( 3.491481338843133355E-15, -0.0000000000000000000, 1.000000000000000000 ) ) ;
#24 = LOCAL_TIME ( 7, 47, 13.00000000000000000, #86 ) ;
#25 = EDGE_LOOP ( 'NONE', ( #139 ) ) ;
#26 = DIRECTION ( 'NONE',  ( -3.491481338843133355E-15, 0.0000000000000000000, -1.000000000000000000 ) ) ;
#27 = CARTESIAN_POINT ( 'NONE',  ( 1.047444401652939849E-14, 0.0000000000000000000, 2.999999999999999556 ) ) ;
#28 = VERTEX_POINT ( 'NONE', #203 ) ;
#29 = CARTESIAN_POINT ( 'NONE',  ( 1.000000000000009992, 0.0000000000000000000, 2.999999999999996003 ) ) ;
#30 = DIRECTION ( 'NONE',  ( -3.491481338843133355E-15, 0.0000000000000000000, -1.000000000000000000 ) ) ;
#31 = PERSON_AND_ORGANIZATION ( #199, #141 ) ;
#32 = CC_DESIGN_PERSON_AND_ORGANIZATION_ASSIGNMENT ( #31, #227, ( #9 ) ) ;
#33 = COORDINATED_UNIVERSAL_TIME_OFFSET ( 1, 0, .AHEAD. ) ;
#34 = DIRECTION ( 'NONE',  ( 1.000000000000000000, 0.0000000000000000000, -3.491481338843133355E-15 ) ) ;
#35 = AXIS2_PLACEMENT_3D ( 'NONE', #42, #23, #92 ) ;
#36 = EDGE_CURVE ( 'NONE', #28, #28, #57, .T. ) ;
#37 = DIRECTION ( 'NONE',  ( -1.000000000000000000, 0.0000000000000000000, 3.491481338843133355E-15 ) ) ;
#38 = EDGE_LOOP ( 'NONE', ( #215 ) ) ;
#39 = TOROIDAL_SURFACE ( 'NONE', #239, 3.000000000000000444, 2.000000000000000444 ) ;
#40 = CC_DESIGN_PERSON_AND_ORGANIZATION_ASSIGNMENT ( #126, #210, ( #2 ) ) ;
#41 = EDGE_LOOP ( 'NONE', ( #140 ) ) ;
#42 = CARTESIAN_POINT ( 'NONE',  ( 1.326762908760390423E-13, 0.0000000000000000000, 38.00000000000000000 ) ) ;
#43 = PLANE ( 'NONE',  #114 ) ;
#44 = APPLICATION_CONTEXT ( 'configuration controlled 3d designs of mechanical parts and assemblies' ) ;
#45 = VERTEX_POINT ( 'NONE', #123 ) ;
#46 = CARTESIAN_POINT ( 'NONE',  ( 2.000000000000131450, 0.0000000000000000000, 37.59999999999999432 ) ) ;
#47 = PERSON_AND_ORGANIZATION ( #199, #141 ) ;
#48 = FACE_OUTER_BOUND ( 'NONE', #177, .T. ) ;
#49 = DATE_AND_TIME ( #132, #127 ) ;
#50 = DIRECTION ( 'NONE',  ( 3.491481338843133355E-15, -0.0000000000000000000, 1.000000000000000000 ) ) ;
#51 = ADVANCED_FACE ( 'NONE', ( #115 ), #43, .T. ) ;
#52 = APPROVAL_ROLE ( '' ) ;
#53 = CARTESIAN_POINT ( 'NONE',  ( 1.312796983405018142E-13, 0.0000000000000000000, 37.60000000000000142 ) ) ;
#54 = APPLICATION_PROTOCOL_DEFINITION ( 'international standard', 'config_control_design', 1994, #128 ) ;
#55 =( NAMED_UNIT ( * ) SI_UNIT ( $, .STERADIAN. ) SOLID_ANGLE_UNIT ( ) );
#56 = AXIS2_PLACEMENT_3D ( 'NONE', #27, #181, #118 ) ;
#57 = CIRCLE ( 'NONE', #35, 1.600000000000000089 ) ;
#58 = AXIS2_PLACEMENT_3D ( 'NONE', #53, #240, #103 ) ;
#59 = PRODUCT_DEFINITION_SHAPE ( 'NONE', 'NONE',  #2 ) ;
#60 = DIRECTION ( 'NONE',  ( 1.000000000000000000, 0.0000000000000000000, -3.491481338843133355E-15 ) ) ;
#61 = AXIS2_PLACEMENT_3D ( 'NONE', #98, #15, #34 ) ;
#62 = ORIENTED_EDGE ( 'NONE', *, *, #178, .T. ) ;
#63 = CARTESIAN_POINT ( 'NONE',  ( 1.047444401652940007E-14, 0.0000000000000000000, 3.000000000000000000 ) ) ;
#64 = FACE_OUTER_BOUND ( 'NONE', #38, .T. ) ;
#65 = DATE_AND_TIME ( #133, #231 ) ;
#66 = DIRECTION ( 'NONE',  ( 1.000000000000000000, 0.0000000000000000000, -3.469446951953615767E-15 ) ) ;
#67 = FACE_OUTER_BOUND ( 'NONE', #119, .T. ) ;
#68 = DATE_TIME_ROLE ( 'creation_date' ) ;
#69 = FACE_BOUND ( 'NONE', #165, .T. ) ;
#70 = CC_DESIGN_APPROVAL ( #109, ( #9 ) ) ;
#71 = EDGE_CURVE ( 'NONE', #238, #238, #13, .T. ) ;
#72 = CIRCLE ( 'NONE', #110, 1.000000000000000000 ) ;
#73 = AXIS2_PLACEMENT_3D ( 'NONE', #207, #173, #81 ) ;
#74 = ORIENTED_EDGE ( 'NONE', *, *, #194, .T. ) ;
#75 = ORIENTED_EDGE ( 'NONE', *, *, #228, .F. ) ;
#76 = FACE_OUTER_BOUND ( 'NONE', #97, .T. ) ;
#77 = CIRCLE ( 'NONE', #102, 0.9999999999999995559 ) ;
#78 = FACE_OUTER_BOUND ( 'NONE', #25, .T. ) ;
#79 = PRODUCT ( '334872', '334872', '', ( #168 ) ) ;
#80 = EDGE_LOOP ( 'NONE', ( #232 ) ) ;
#81 = DIRECTION ( 'NONE',  ( -1.000000000000000000, 0.0000000000000000000, 3.491481338843133355E-15 ) ) ;
#82 = CC_DESIGN_APPROVAL ( #84, ( #2 ) ) ;
#83 = DIRECTION ( 'NONE',  ( 1.000000000000000000, 0.0000000000000000000, -3.654106501562834002E-15 ) ) ;
#84 = APPROVAL ( #229, 'UNSPECIFIED' ) ;
#85 = DATE_AND_TIME ( #112, #225 ) ;
#86 = COORDINATED_UNIVERSAL_TIME_OFFSET ( 1, 0, .AHEAD. ) ;
#87 = DIRECTION ( 'NONE',  ( 1.000000000000000000, 0.0000000000000000000, -3.491481338843133355E-15 ) ) ;
#88 = APPROVAL_ROLE ( '' ) ;
#89 = FACE_OUTER_BOUND ( 'NONE', #201, .T. ) ;
#90 = AXIS2_PLACEMENT_3D ( 'NONE', #218, #209, #221 ) ;
#91 = ADVANCED_BREP_SHAPE_REPRESENTATION ( '334872', ( #160, #234, #21 ), #4 ) ;
#92 = DIRECTION ( 'NONE',  ( 1.000000000000000000, 0.0000000000000000000, -4.336808689942017736E-15 ) ) ;
#93 = AXIS2_PLACEMENT_3D ( 'NONE', #235, #137, #37 ) ;
#94 = ORIENTED_EDGE ( 'NONE', *, *, #205, .T. ) ;
#95 = EDGE_LOOP ( 'NONE', ( #166 ) ) ;
#96 = AXIS2_PLACEMENT_3D ( 'NONE', #219, #50, #243 ) ;
#97 = EDGE_LOOP ( 'NONE', ( #161 ) ) ;
#98 = CARTESIAN_POINT ( 'NONE',  ( 0.0000000000000000000, 0.0000000000000000000, 0.0000000000000000000 ) ) ;
#99 = DIRECTION ( 'NONE',  ( 3.491481338843133355E-15, -0.0000000000000000000, 1.000000000000000000 ) ) ;
#100 = ADVANCED_FACE ( 'NONE', ( #76 ), #200, .F. ) ;
#101 = DIRECTION ( 'NONE',  ( 0.0000000000000000000, 0.0000000000000000000, 1.000000000000000000 ) ) ;
#102 = AXIS2_PLACEMENT_3D ( 'NONE', #107, #184, #66 ) ;
#103 = DIRECTION ( 'NONE',  ( 1.000000000000000000, 0.0000000000000000000, -3.469446951953614189E-15 ) ) ;
#104 = APPROVAL_STATUS ( 'not_yet_approved' ) ;
#105 = VERTEX_POINT ( 'NONE', #183 ) ;
#106 = PERSON_AND_ORGANIZATION_ROLE ( 'creator' ) ;
#107 = CARTESIAN_POINT ( 'NONE',  ( 1.047444401652939849E-14, 0.0000000000000000000, 2.999999999999999556 ) ) ;
#108 = DATE_TIME_ROLE ( 'classification_date' ) ;
#109 = APPROVAL ( #104, 'UNSPECIFIED' ) ;
#110 = AXIS2_PLACEMENT_3D ( 'NONE', #147, #155, #152 ) ;
#111 = CLOSED_SHELL ( 'NONE', ( #122, #142, #51, #135, #182, #3 ) ) ;
#112 = CALENDAR_DATE ( 2021, 9, 11 ) ;
#113 = CC_DESIGN_PERSON_AND_ORGANIZATION_ASSIGNMENT ( #47, #189, ( #146 ) ) ;
#114 = AXIS2_PLACEMENT_3D ( 'NONE', #233, #5, #60 ) ;
#115 = FACE_OUTER_BOUND ( 'NONE', #7, .T. ) ;
#116 = EDGE_LOOP ( 'NONE', ( #75 ) ) ;
#117 = EDGE_LOOP ( 'NONE', ( #196 ) ) ;
#118 = DIRECTION ( 'NONE',  ( 1.000000000000000000, 0.0000000000000000000, -3.469446951953615767E-15 ) ) ;
#119 = EDGE_LOOP ( 'NONE', ( #214 ) ) ;
#120 = CC_DESIGN_SECURITY_CLASSIFICATION ( #146, ( #9 ) ) ;
#121 = CYLINDRICAL_SURFACE ( 'NONE', #61, 2.000000000000000000 ) ;
#122 = ADVANCED_FACE ( 'NONE', ( #10, #78 ), #121, .T. ) ;
#123 = CARTESIAN_POINT ( 'NONE',  ( 2.000000000000024425, 0.0000000000000000000, 6.995355802743752349 ) ) ;
#124 = PERSON_AND_ORGANIZATION_ROLE ( 'design_owner' ) ;
#125 = VERTEX_POINT ( 'NONE', #46 ) ;
#126 = PERSON_AND_ORGANIZATION ( #199, #141 ) ;
#127 = LOCAL_TIME ( 7, 47, 13.00000000000000000, #19 ) ;
#128 = APPLICATION_CONTEXT ( 'configuration controlled 3d designs of mechanical parts and assemblies' ) ;
#129 =( LENGTH_UNIT ( ) NAMED_UNIT ( * ) SI_UNIT ( .MILLI., .METRE. ) );
#130 = COORDINATED_UNIVERSAL_TIME_OFFSET ( 1, 0, .AHEAD. ) ;
#131 = DIRECTION ( 'NONE',  ( -1.000000000000000000, 0.0000000000000000000, 4.336808689942017736E-15 ) ) ;
#132 = CALENDAR_DATE ( 2021, 9, 11 ) ;
#133 = CALENDAR_DATE ( 2021, 9, 11 ) ;
#134 = AXIS2_PLACEMENT_3D ( 'NONE', #187, #30, #131 ) ;
#135 = ADVANCED_FACE ( 'NONE', ( #192, #223 ), #39, .F. ) ;
#136 = APPROVAL_PERSON_ORGANIZATION ( #14, #84, #88 ) ;
#137 = DIRECTION ( 'NONE',  ( -3.491481338843133355E-15, 0.0000000000000000000, -1.000000000000000000 ) ) ;
#138 = CC_DESIGN_DATE_AND_TIME_ASSIGNMENT ( #85, #68, ( #2 ) ) ;
#139 = ORIENTED_EDGE ( 'NONE', *, *, #212, .T. ) ;
#140 = ORIENTED_EDGE ( 'NONE', *, *, #36, .F. ) ;
#141 = ORGANIZATION ( 'UNSPECIFIED', 'UNSPECIFIED', '' ) ;
#142 = ADVANCED_FACE ( 'NONE', ( #167, #190 ), #186, .T. ) ;
#143 = ORIENTED_EDGE ( 'NONE', *, *, #178, .F. ) ;
#144 = FACE_OUTER_BOUND ( 'NONE', #116, .T. ) ;
#145 = CARTESIAN_POINT ( 'NONE',  ( 1.000000000000000000, 0.0000000000000000000, -3.491481620436533726E-15 ) ) ;
#146 = SECURITY_CLASSIFICATION ( '', '', #220 ) ;
#147 = CARTESIAN_POINT ( 'NONE',  ( -9.831781012932406109E-37, 0.0000000000000000000, -2.815934000148506281E-22 ) ) ;
#148 = UNCERTAINTY_MEASURE_WITH_UNIT (LENGTH_MEASURE( 1.000000000000000082E-05 ), #129, 'distance_accuracy_value', 'NONE');
#149 = DIRECTION ( 'NONE',  ( 1.000000000000000000, 0.0000000000000000000, 0.0000000000000000000 ) ) ;
#150 = VERTEX_POINT ( 'NONE', #145 ) ;
#151 = CARTESIAN_POINT ( 'NONE',  ( 0.0000000000000000000, 0.0000000000000000000, 0.0000000000000000000 ) ) ;
#152 = DIRECTION ( 'NONE',  ( 1.000000000000000000, 0.0000000000000000000, -3.491481338843133355E-15 ) ) ;
#153 = PERSON_AND_ORGANIZATION ( #199, #141 ) ;
#154 = APPROVAL_PERSON_ORGANIZATION ( #153, #8, #52 ) ;
#155 = DIRECTION ( 'NONE',  ( 3.491481338843133355E-15, -0.0000000000000000000, 1.000000000000000000 ) ) ;
#156 = APPROVAL_DATE_TIME ( #49, #109 ) ;
#157 =( NAMED_UNIT ( * ) PLANE_ANGLE_UNIT ( ) SI_UNIT ( $, .RADIAN. ) );
#158 = APPLICATION_PROTOCOL_DEFINITION ( 'international standard', 'config_control_design', 1994, #44 ) ;
#159 = AXIS2_PLACEMENT_3D ( 'NONE', #163, #26, #180 ) ;
#160 = MANIFOLD_SOLID_BREP ( 'Corps-Déplacer/Copier1[1]', #111 ) ;
#161 = ORIENTED_EDGE ( 'NONE', *, *, #71, .T. ) ;
#162 = CC_DESIGN_PERSON_AND_ORGANIZATION_ASSIGNMENT ( #185, #124, ( #79 ) ) ;
#163 = CARTESIAN_POINT ( 'NONE',  ( 1.047444401652940007E-14, -6.505213034913024632E-16, 3.000000000000000000 ) ) ;
#164 = CIRCLE ( 'NONE', #90, 2.000000000000000000 ) ;
#165 = EDGE_LOOP ( 'NONE', ( #74 ) ) ;
#166 = ORIENTED_EDGE ( 'NONE', *, *, #205, .F. ) ;
#167 = FACE_OUTER_BOUND ( 'NONE', #198, .T. ) ;
#168 = MECHANICAL_CONTEXT ( 'NONE', #44, 'mechanical' ) ;
#169 = PLANE ( 'NONE',  #73 ) ;
#170 = COORDINATED_UNIVERSAL_TIME_OFFSET ( 1, 0, .AHEAD. ) ;
#171 = DIRECTION ( 'NONE',  ( 3.491481338843133355E-15, -0.0000000000000000000, 1.000000000000000000 ) ) ;
#172 = CALENDAR_DATE ( 2021, 9, 11 ) ;
#173 = DIRECTION ( 'NONE',  ( -3.491481338843133355E-15, 0.0000000000000000000, -1.000000000000000000 ) ) ;
#174 = SHAPE_DEFINITION_REPRESENTATION ( #59, #91 ) ;
#175 = ADVANCED_FACE ( 'NONE', ( #89, #64 ), #241, .T. ) ;
#176 = LOCAL_TIME ( 7, 47, 13.00000000000000000, #130 ) ;
#177 = EDGE_LOOP ( 'NONE', ( #143 ) ) ;
#178 = EDGE_CURVE ( 'NONE', #150, #150, #72, .T. ) ;
#179 = PLANE ( 'NONE',  #93 ) ;
#180 = DIRECTION ( 'NONE',  ( -1.000000000000000000, 0.0000000000000000000, 3.491481338843133355E-15 ) ) ;
#181 = DIRECTION ( 'NONE',  ( 3.491481338843133355E-15, -0.0000000000000000000, 1.000000000000000000 ) ) ;
#182 = ADVANCED_FACE ( 'NONE', ( #69, #67 ), #236, .T. ) ;
#183 = CARTESIAN_POINT ( 'NONE',  ( 1.068148347421872479, 0.0000000000000000000, 3.517638090205025048 ) ) ;
#184 = DIRECTION ( 'NONE',  ( 3.491481338843133355E-15, -0.0000000000000000000, 1.000000000000000000 ) ) ;
#185 = PERSON_AND_ORGANIZATION ( #199, #141 ) ;
#186 = CONICAL_SURFACE ( 'NONE', #134, 1.600000000000000089, 0.7853981633974512766 ) ;
#187 = CARTESIAN_POINT ( 'NONE',  ( 1.326762908760390423E-13, 0.0000000000000000000, 38.00000000000000000 ) ) ;
#188 = DESIGN_CONTEXT ( 'detailed design', #128, 'design' ) ;
#189 = PERSON_AND_ORGANIZATION_ROLE ( 'classification_officer' ) ;
#190 = FACE_BOUND ( 'NONE', #41, .T. ) ;
#191 = DATE_AND_TIME ( #208, #176 ) ;
#192 = FACE_OUTER_BOUND ( 'NONE', #117, .T. ) ;
#193 = APPROVAL_ROLE ( '' ) ;
#194 = EDGE_CURVE ( 'NONE', #105, #105, #195, .T. ) ;
#195 = CIRCLE ( 'NONE', #216, 1.068148347421860045 ) ;
#196 = ORIENTED_EDGE ( 'NONE', *, *, #228, .T. ) ;
#197 = ADVANCED_FACE ( 'NONE', ( #48 ), #169, .T. ) ;
#198 = EDGE_LOOP ( 'NONE', ( #94 ) ) ;
#199 = PERSON ( 'UNSPECIFIED', 'UNSPECIFIED', 'UNSPECIFIED', ('UNSPECIFIED'), ('UNSPECIFIED'), ('UNSPECIFIED') ) ;
#200 = PLANE ( 'NONE',  #159 ) ;
#201 = EDGE_LOOP ( 'NONE', ( #62 ) ) ;
#202 = APPROVAL_PERSON_ORGANIZATION ( #222, #109, #193 ) ;
#203 = CARTESIAN_POINT ( 'NONE',  ( 1.600000000000132871, 0.0000000000000000000, 37.99999999999999289 ) ) ;
#204 = VERTEX_POINT ( 'NONE', #29 ) ;
#205 = EDGE_CURVE ( 'NONE', #125, #125, #213, .T. ) ;
#206 = PERSON_AND_ORGANIZATION ( #199, #141 ) ;
#207 = CARTESIAN_POINT ( 'NONE',  ( -4.915890506466203054E-37, 0.0000000000000000000, -1.407967000074253141E-22 ) ) ;
#208 = CALENDAR_DATE ( 2021, 9, 11 ) ;
#209 = DIRECTION ( 'NONE',  ( 3.491481338843133355E-15, -0.0000000000000000000, 1.000000000000000000 ) ) ;
#210 = PERSON_AND_ORGANIZATION_ROLE ( 'creator' ) ;
#211 = CC_DESIGN_DATE_AND_TIME_ASSIGNMENT ( #242, #108, ( #146 ) ) ;
#212 = EDGE_CURVE ( 'NONE', #45, #45, #164, .T. ) ;
#213 = CIRCLE ( 'NONE', #58, 2.000000000000000000 ) ;
#214 = ORIENTED_EDGE ( 'NONE', *, *, #212, .F. ) ;
#215 = ORIENTED_EDGE ( 'NONE', *, *, #71, .F. ) ;
#216 = AXIS2_PLACEMENT_3D ( 'NONE', #226, #99, #83 ) ;
#217 = ORIENTED_EDGE ( 'NONE', *, *, #36, .T. ) ;
#218 = CARTESIAN_POINT ( 'NONE',  ( 2.442415424384786304E-14, 0.0000000000000000000, 6.995355802743759455 ) ) ;
#219 = CARTESIAN_POINT ( 'NONE',  ( 2.442415424384786304E-14, 0.0000000000000000000, 6.995355802743759455 ) ) ;
#220 = SECURITY_CLASSIFICATION_LEVEL ( 'unclassified' ) ;
#221 = DIRECTION ( 'NONE',  ( 1.000000000000000000, 0.0000000000000000000, -3.469446951953614189E-15 ) ) ;
#222 = PERSON_AND_ORGANIZATION ( #199, #141 ) ;
#223 = FACE_OUTER_BOUND ( 'NONE', #80, .T. ) ;
#224 = APPROVAL_STATUS ( 'not_yet_approved' ) ;
#225 = LOCAL_TIME ( 7, 47, 13.00000000000000000, #170 ) ;
#226 = CARTESIAN_POINT ( 'NONE',  ( 1.228176774875465645E-14, 0.0000000000000000000, 3.517638090205028600 ) ) ;
#227 = PERSON_AND_ORGANIZATION_ROLE ( 'design_supplier' ) ;
#228 = EDGE_CURVE ( 'NONE', #204, #204, #77, .T. ) ;
#229 = APPROVAL_STATUS ( 'not_yet_approved' ) ;
#230 = CC_DESIGN_PERSON_AND_ORGANIZATION_ASSIGNMENT ( #206, #106, ( #9 ) ) ;
#231 = LOCAL_TIME ( 7, 47, 13.00000000000000000, #33 ) ;
#232 = ORIENTED_EDGE ( 'NONE', *, *, #194, .F. ) ;
#233 = CARTESIAN_POINT ( 'NONE',  ( 1.326762908760390423E-13, 0.0000000000000000000, 38.00000000000000000 ) ) ;
#234 = MANIFOLD_SOLID_BREP ( 'Corps-Déplacer/Copier1[2]', #22 ) ;
#235 = CARTESIAN_POINT ( 'NONE',  ( 1.047444401652940007E-14, -6.505213034913024632E-16, 3.000000000000000000 ) ) ;
#236 = CONICAL_SURFACE ( 'NONE', #96, 2.000000000000000000, 0.2617993877991429130 ) ;
#237 = CARTESIAN_POINT ( 'NONE',  ( 0.0000000000000000000, 0.0000000000000000000, 0.0000000000000000000 ) ) ;
#238 = VERTEX_POINT ( 'NONE', #12 ) ;
#239 = AXIS2_PLACEMENT_3D ( 'NONE', #63, #171, #17 ) ;
#240 = DIRECTION ( 'NONE',  ( 3.491481338843133355E-15, -0.0000000000000000000, 1.000000000000000000 ) ) ;
#241 = CYLINDRICAL_SURFACE ( 'NONE', #20, 0.9999999999999997780 ) ;
#242 = DATE_AND_TIME ( #172, #24 ) ;
#243 = DIRECTION ( 'NONE',  ( 1.000000000000000000, 0.0000000000000000000, -3.469446951953614189E-15 ) ) ;
ENDSEC;
END-ISO-10303-21;
