ISO-10303-21;
HEADER;
FILE_DESCRIPTION (( 'STEP AP203' ),
    '1' );
FILE_NAME ('334871.step',
    '2021-11-09T06:47:12',
    ( '' ),
    ( '' ),
    'SwSTEP 2.0',
    'SolidWorks 2019',
    '' );
FILE_SCHEMA (( 'CONFIG_CONTROL_DESIGN' ));
ENDSEC;

DATA;
#1 = CARTESIAN_POINT ( 'NONE',  ( 9.950721815702930063E-15, 0.0000000000000000000, 2.849999999999999645 ) ) ;
#2 = PRODUCT_DEFINITION_FORMATION_WITH_SPECIFIED_SOURCE ( 'ANY', '', #229, .NOT_KNOWN. ) ;
#3 = FACE_OUTER_BOUND ( 'NONE', #175, .T. ) ;
#4 = ADVANCED_FACE ( 'NONE', ( #211, #45 ), #9, .T. ) ;
#5 = ORIENTED_EDGE ( 'NONE', *, *, #15, .F. ) ;
#6 = EDGE_LOOP ( 'NONE', ( #64 ) ) ;
#7 = DATE_AND_TIME ( #105, #23 ) ;
#8 = APPLICATION_CONTEXT ( 'configuration controlled 3d designs of mechanical parts and assemblies' ) ;
#9 = CONICAL_SURFACE ( 'NONE', #223, 2.000000000000000000, 0.2617993877991428020 ) ;
#10 = CALENDAR_DATE ( 2021, 9, 11 ) ;
#11 = CARTESIAN_POINT ( 'NONE',  ( 2.455195133053347890E-14, 0.0000000000000000000, 7.031958343122211019 ) ) ;
#12 = APPROVAL_STATUS ( 'not_yet_approved' ) ;
#13 = SECURITY_CLASSIFICATION ( '', '', #124 ) ;
#14 = CARTESIAN_POINT ( 'NONE',  ( 1.312796983405018142E-13, 0.0000000000000000000, 37.60000000000000142 ) ) ;
#15 = EDGE_CURVE ( 'NONE', #127, #127, #63, .T. ) ;
#16 = CARTESIAN_POINT ( 'NONE',  ( 2.000000000000024869, 0.0000000000000000000, 7.031958343122203914 ) ) ;
#17 = CC_DESIGN_DATE_AND_TIME_ASSIGNMENT ( #125, #31, ( #22 ) ) ;
#18 =( NAMED_UNIT ( * ) SI_UNIT ( $, .STERADIAN. ) SOLID_ANGLE_UNIT ( ) );
#19 = DIRECTION ( 'NONE',  ( 3.491481338843133355E-15, -0.0000000000000000000, 1.000000000000000000 ) ) ;
#20 = DIRECTION ( 'NONE',  ( 1.000000000000000000, 0.0000000000000000000, -3.469446951953614189E-15 ) ) ;
#21 = AXIS2_PLACEMENT_3D ( 'NONE', #14, #143, #146 ) ;
#22 = PRODUCT_DEFINITION ( 'UNKNOWN', '', #2, #242 ) ;
#23 = LOCAL_TIME ( 7, 47, 12.00000000000000000, #28 ) ;
#24 = DIRECTION ( 'NONE',  ( 3.491481338843133355E-15, -0.0000000000000000000, 1.000000000000000000 ) ) ;
#25 = LOCAL_TIME ( 7, 47, 12.00000000000000000, #199 ) ;
#26 = EDGE_LOOP ( 'NONE', ( #43 ) ) ;
#27 = DATE_AND_TIME ( #46, #25 ) ;
#28 = COORDINATED_UNIVERSAL_TIME_OFFSET ( 1, 0, .AHEAD. ) ;
#29 = PERSON_AND_ORGANIZATION ( #118, #88 ) ;
#30 = CIRCLE ( 'NONE', #21, 2.000000000000000000 ) ;
#31 = DATE_TIME_ROLE ( 'creation_date' ) ;
#32 = DIRECTION ( 'NONE',  ( 1.000000000000000000, 0.0000000000000000000, -3.491481338843133355E-15 ) ) ;
#33 = DIRECTION ( 'NONE',  ( -3.491481338843133355E-15, 0.0000000000000000000, -1.000000000000000000 ) ) ;
#34 = CARTESIAN_POINT ( 'NONE',  ( -4.915890506466203054E-37, 0.0000000000000000000, -1.407967000074253141E-22 ) ) ;
#35 = VERTEX_POINT ( 'NONE', #16 ) ;
#36 = CARTESIAN_POINT ( 'NONE',  ( 0.0000000000000000000, 0.0000000000000000000, 0.0000000000000000000 ) ) ;
#37 = EDGE_LOOP ( 'NONE', ( #155 ) ) ;
#38 = DIRECTION ( 'NONE',  ( 3.491481338843133355E-15, -0.0000000000000000000, 1.000000000000000000 ) ) ;
#39 = ORIENTED_EDGE ( 'NONE', *, *, #160, .F. ) ;
#40 = DIRECTION ( 'NONE',  ( 1.000000000000000000, 0.0000000000000000000, -4.336808689942017736E-15 ) ) ;
#41 = PLANE ( 'NONE',  #119 ) ;
#42 = AXIS2_PLACEMENT_3D ( 'NONE', #207, #38, #219 ) ;
#43 = ORIENTED_EDGE ( 'NONE', *, *, #137, .F. ) ;
#44 = LOCAL_TIME ( 7, 47, 12.00000000000000000, #72 ) ;
#45 = FACE_OUTER_BOUND ( 'NONE', #83, .T. ) ;
#46 = CALENDAR_DATE ( 2021, 9, 11 ) ;
#47 = APPROVAL ( #67, 'UNSPECIFIED' ) ;
#48 = PERSON_AND_ORGANIZATION_ROLE ( 'design_supplier' ) ;
#49 = APPROVAL_DATE_TIME ( #144, #171 ) ;
#50 = DIRECTION ( 'NONE',  ( 1.000000000000000000, 0.0000000000000000000, -3.469446951953614189E-15 ) ) ;
#51 = PERSON_AND_ORGANIZATION ( #118, #88 ) ;
#52 = VERTEX_POINT ( 'NONE', #203 ) ;
#53 = APPLICATION_CONTEXT ( 'configuration controlled 3d designs of mechanical parts and assemblies' ) ;
#54 = CARTESIAN_POINT ( 'NONE',  ( 9.950721815702930063E-15, 0.0000000000000000000, 2.849999999999999645 ) ) ;
#55 = ADVANCED_FACE ( 'NONE', ( #226 ), #117, .T. ) ;
#56 = CARTESIAN_POINT ( 'NONE',  ( 0.9500000000000093925, 0.0000000000000000000, 2.849999999999996092 ) ) ;
#57 = CIRCLE ( 'NONE', #190, 0.9499999999999998446 ) ;
#58 = DIRECTION ( 'NONE',  ( 1.000000000000000000, 0.0000000000000000000, 0.0000000000000000000 ) ) ;
#59 = APPROVAL_PERSON_ORGANIZATION ( #29, #171, #234 ) ;
#60 = DIRECTION ( 'NONE',  ( -3.491481338843133355E-15, 0.0000000000000000000, -1.000000000000000000 ) ) ;
#61 = DIRECTION ( 'NONE',  ( -1.000000000000000000, 0.0000000000000000000, 3.491481338843133355E-15 ) ) ;
#62 = ORIENTED_EDGE ( 'NONE', *, *, #86, .T. ) ;
#63 = CIRCLE ( 'NONE', #233, 1.600000000000000089 ) ;
#64 = ORIENTED_EDGE ( 'NONE', *, *, #15, .T. ) ;
#65 = EDGE_LOOP ( 'NONE', ( #62 ) ) ;
#66 = APPROVAL_ROLE ( '' ) ;
#67 = APPROVAL_STATUS ( 'not_yet_approved' ) ;
#68 = CC_DESIGN_PERSON_AND_ORGANIZATION_ASSIGNMENT ( #51, #48, ( #2 ) ) ;
#69 = AXIS2_PLACEMENT_3D ( 'NONE', #147, #145, #184 ) ;
#70 = PERSON_AND_ORGANIZATION ( #118, #88 ) ;
#71 = PLANE ( 'NONE',  #138 ) ;
#72 = COORDINATED_UNIVERSAL_TIME_OFFSET ( 1, 0, .AHEAD. ) ;
#73 = FACE_OUTER_BOUND ( 'NONE', #154, .T. ) ;
#74 = DIRECTION ( 'NONE',  ( -1.000000000000000000, 0.0000000000000000000, 4.336808689942017736E-15 ) ) ;
#75 = PERSON_AND_ORGANIZATION ( #118, #88 ) ;
#76 = FACE_OUTER_BOUND ( 'NONE', #174, .T. ) ;
#77 = AXIS2_PLACEMENT_3D ( 'NONE', #227, #98, #168 ) ;
#78 = APPROVAL ( #12, 'UNSPECIFIED' ) ;
#79 = AXIS2_PLACEMENT_3D ( 'NONE', #136, #92, #165 ) ;
#80 = DIRECTION ( 'NONE',  ( 3.491481338843133355E-15, -0.0000000000000000000, 1.000000000000000000 ) ) ;
#81 = FACE_OUTER_BOUND ( 'NONE', #37, .T. ) ;
#82 = EDGE_LOOP ( 'NONE', ( #230 ) ) ;
#83 = EDGE_LOOP ( 'NONE', ( #209 ) ) ;
#84 = PERSON_AND_ORGANIZATION ( #118, #88 ) ;
#85 = CC_DESIGN_DATE_AND_TIME_ASSIGNMENT ( #27, #195, ( #13 ) ) ;
#86 = EDGE_CURVE ( 'NONE', #113, #113, #150, .T. ) ;
#87 = APPROVAL_DATE_TIME ( #142, #78 ) ;
#88 = ORGANIZATION ( 'UNSPECIFIED', 'UNSPECIFIED', '' ) ;
#89 = DIRECTION ( 'NONE',  ( 1.000000000000000000, 0.0000000000000000000, -3.652049423109069602E-15 ) ) ;
#90 = COORDINATED_UNIVERSAL_TIME_OFFSET ( 1, 0, .AHEAD. ) ;
#91 = FACE_OUTER_BOUND ( 'NONE', #102, .T. ) ;
#92 = DIRECTION ( 'NONE',  ( 3.491481338843133355E-15, -0.0000000000000000000, 1.000000000000000000 ) ) ;
#93 = CARTESIAN_POINT ( 'NONE',  ( 1.600000000000132871, 0.0000000000000000000, 37.99999999999999289 ) ) ;
#94 = DIRECTION ( 'NONE',  ( 0.0000000000000000000, 0.0000000000000000000, 1.000000000000000000 ) ) ;
#95 = ADVANCED_FACE ( 'NONE', ( #169 ), #41, .T. ) ;
#96 = AXIS2_PLACEMENT_3D ( 'NONE', #11, #128, #50 ) ;
#97 = DIRECTION ( 'NONE',  ( 1.000000000000000000, 0.0000000000000000000, -3.407604560513107832E-15 ) ) ;
#98 = DIRECTION ( 'NONE',  ( 3.491481338843133355E-15, -0.0000000000000000000, 1.000000000000000000 ) ) ;
#99 = ORIENTED_EDGE ( 'NONE', *, *, #170, .F. ) ;
#100 = AXIS2_PLACEMENT_3D ( 'NONE', #151, #187, #97 ) ;
#101 = APPROVAL_PERSON_ORGANIZATION ( #132, #78, #108 ) ;
#102 = EDGE_LOOP ( 'NONE', ( #39 ) ) ;
#103 = EDGE_LOOP ( 'NONE', ( #191 ) ) ;
#104 = EDGE_CURVE ( 'NONE', #201, #201, #208, .T. ) ;
#105 = CALENDAR_DATE ( 2021, 9, 11 ) ;
#106 = PERSON_AND_ORGANIZATION ( #118, #88 ) ;
#107 = CLOSED_SHELL ( 'NONE', ( #212, #222, #55, #129, #4, #95 ) ) ;
#108 = APPROVAL_ROLE ( '' ) ;
#109 =( GEOMETRIC_REPRESENTATION_CONTEXT ( 3 ) GLOBAL_UNCERTAINTY_ASSIGNED_CONTEXT ( ( #186 ) ) GLOBAL_UNIT_ASSIGNED_CONTEXT ( ( #204, #114, #18 ) ) REPRESENTATION_CONTEXT ( 'NONE', 'WORKASPACE' ) );
#110 = DIRECTION ( 'NONE',  ( 3.491481338843133355E-15, -0.0000000000000000000, 1.000000000000000000 ) ) ;
#111 = CARTESIAN_POINT ( 'NONE',  ( 0.9500000000000093925, 0.0000000000000000000, 2.849999999999996092 ) ) ;
#112 = DIRECTION ( 'NONE',  ( -1.000000000000000000, 0.0000000000000000000, 3.491481338843133355E-15 ) ) ;
#113 = VERTEX_POINT ( 'NONE', #130 ) ;
#114 =( NAMED_UNIT ( * ) PLANE_ANGLE_UNIT ( ) SI_UNIT ( $, .RADIAN. ) );
#115 = CC_DESIGN_PERSON_AND_ORGANIZATION_ASSIGNMENT ( #217, #197, ( #2 ) ) ;
#116 = CARTESIAN_POINT ( 'NONE',  ( 9.950721815702931640E-15, -6.179952383167373302E-16, 2.850000000000000089 ) ) ;
#117 = PLANE ( 'NONE',  #77 ) ;
#118 = PERSON ( 'UNSPECIFIED', 'UNSPECIFIED', 'UNSPECIFIED', ('UNSPECIFIED'), ('UNSPECIFIED'), ('UNSPECIFIED') ) ;
#119 = AXIS2_PLACEMENT_3D ( 'NONE', #116, #60, #61 ) ;
#120 = CC_DESIGN_PERSON_AND_ORGANIZATION_ASSIGNMENT ( #70, #237, ( #22 ) ) ;
#121 = CC_DESIGN_APPROVAL ( #78, ( #22 ) ) ;
#122 = ORIENTED_EDGE ( 'NONE', *, *, #160, .T. ) ;
#123 = EDGE_LOOP ( 'NONE', ( #5 ) ) ;
#124 = SECURITY_CLASSIFICATION_LEVEL ( 'unclassified' ) ;
#125 = DATE_AND_TIME ( #161, #210 ) ;
#126 = CARTESIAN_POINT ( 'NONE',  ( 0.0000000000000000000, 0.0000000000000000000, 0.0000000000000000000 ) ) ;
#127 = VERTEX_POINT ( 'NONE', #93 ) ;
#128 = DIRECTION ( 'NONE',  ( 3.491481338843133355E-15, -0.0000000000000000000, 1.000000000000000000 ) ) ;
#129 = ADVANCED_FACE ( 'NONE', ( #3, #81 ), #198, .F. ) ;
#130 = CARTESIAN_POINT ( 'NONE',  ( 1.018148347421871547, 0.0000000000000000000, 3.367638090205025581 ) ) ;
#131 = ADVANCED_FACE ( 'NONE', ( #73 ), #71, .T. ) ;
#132 = PERSON_AND_ORGANIZATION ( #118, #88 ) ;
#133 = CLOSED_SHELL ( 'NONE', ( #131, #205, #215 ) ) ;
#134 = CONICAL_SURFACE ( 'NONE', #192, 1.600000000000000089, 0.7853981633974512766 ) ;
#135 = CARTESIAN_POINT ( 'NONE',  ( 1.326762908760390423E-13, 0.0000000000000000000, 38.00000000000000000 ) ) ;
#136 = CARTESIAN_POINT ( 'NONE',  ( 0.0000000000000000000, 0.0000000000000000000, 0.0000000000000000000 ) ) ;
#137 = EDGE_CURVE ( 'NONE', #220, #220, #30, .T. ) ;
#138 = AXIS2_PLACEMENT_3D ( 'NONE', #34, #202, #112 ) ;
#139 = ORIENTED_EDGE ( 'NONE', *, *, #137, .T. ) ;
#140 = APPROVAL_PERSON_ORGANIZATION ( #84, #47, #66 ) ;
#141 = ORIENTED_EDGE ( 'NONE', *, *, #104, .T. ) ;
#142 = DATE_AND_TIME ( #10, #235 ) ;
#143 = DIRECTION ( 'NONE',  ( 3.491481338843133355E-15, -0.0000000000000000000, 1.000000000000000000 ) ) ;
#144 = DATE_AND_TIME ( #163, #44 ) ;
#145 = DIRECTION ( 'NONE',  ( -3.491481338843133355E-15, 0.0000000000000000000, -1.000000000000000000 ) ) ;
#146 = DIRECTION ( 'NONE',  ( 1.000000000000000000, 0.0000000000000000000, -3.469446951953614189E-15 ) ) ;
#147 = CARTESIAN_POINT ( 'NONE',  ( 9.950721815702931640E-15, -6.179952383167373302E-16, 2.850000000000000089 ) ) ;
#148 = PERSON_AND_ORGANIZATION_ROLE ( 'design_owner' ) ;
#149 = CARTESIAN_POINT ( 'NONE',  ( 1.326762908760390423E-13, 0.0000000000000000000, 38.00000000000000000 ) ) ;
#150 = CIRCLE ( 'NONE', #100, 1.018148347421860000 ) ;
#151 = CARTESIAN_POINT ( 'NONE',  ( 1.175804554792818802E-14, 0.0000000000000000000, 3.367638090205028689 ) ) ;
#152 = EDGE_LOOP ( 'NONE', ( #139 ) ) ;
#153 = PRODUCT_RELATED_PRODUCT_CATEGORY ( 'detail', '', ( #229 ) ) ;
#154 = EDGE_LOOP ( 'NONE', ( #99 ) ) ;
#155 = ORIENTED_EDGE ( 'NONE', *, *, #86, .F. ) ;
#156 = ADVANCED_BREP_SHAPE_REPRESENTATION ( '334871', ( #225, #228, #206 ), #109 ) ;
#157 = APPROVAL_DATE_TIME ( #7, #47 ) ;
#158 = AXIS2_PLACEMENT_3D ( 'NONE', #54, #110, #89 ) ;
#159 = CC_DESIGN_SECURITY_CLASSIFICATION ( #13, ( #2 ) ) ;
#160 = EDGE_CURVE ( 'NONE', #166, #166, #177, .T. ) ;
#161 = CALENDAR_DATE ( 2021, 9, 11 ) ;
#162 = DIRECTION ( 'NONE',  ( 1.000000000000000000, 0.0000000000000000000, -3.491481338843133355E-15 ) ) ;
#163 = CALENDAR_DATE ( 2021, 9, 11 ) ;
#164 = FACE_OUTER_BOUND ( 'NONE', #103, .T. ) ;
#165 = DIRECTION ( 'NONE',  ( 1.000000000000000000, 0.0000000000000000000, -3.491481338843133355E-15 ) ) ;
#166 = VERTEX_POINT ( 'NONE', #56 ) ;
#167 = CIRCLE ( 'NONE', #96, 2.000000000000000000 ) ;
#168 = DIRECTION ( 'NONE',  ( 1.000000000000000000, 0.0000000000000000000, -3.491481338843133355E-15 ) ) ;
#169 = FACE_OUTER_BOUND ( 'NONE', #82, .T. ) ;
#170 = EDGE_CURVE ( 'NONE', #52, #52, #57, .T. ) ;
#171 = APPROVAL ( #214, 'UNSPECIFIED' ) ;
#172 = CC_DESIGN_APPROVAL ( #47, ( #13 ) ) ;
#173 = AXIS2_PLACEMENT_3D ( 'NONE', #126, #200, #32 ) ;
#174 = EDGE_LOOP ( 'NONE', ( #122 ) ) ;
#175 = EDGE_LOOP ( 'NONE', ( #141 ) ) ;
#176 = EDGE_CURVE ( 'NONE', #35, #35, #167, .T. ) ;
#177 = CIRCLE ( 'NONE', #158, 0.9499999999999995115 ) ;
#178 = PERSON_AND_ORGANIZATION_ROLE ( 'classification_officer' ) ;
#179 = CYLINDRICAL_SURFACE ( 'NONE', #173, 0.9499999999999996225 ) ;
#180 = COORDINATED_UNIVERSAL_TIME_OFFSET ( 1, 0, .AHEAD. ) ;
#181 = FACE_OUTER_BOUND ( 'NONE', #26, .T. ) ;
#182 = FACE_OUTER_BOUND ( 'NONE', #152, .T. ) ;
#183 = FACE_OUTER_BOUND ( 'NONE', #231, .T. ) ;
#184 = DIRECTION ( 'NONE',  ( -1.000000000000000000, 0.0000000000000000000, 3.491481338843133355E-15 ) ) ;
#185 = APPLICATION_PROTOCOL_DEFINITION ( 'international standard', 'config_control_design', 1994, #8 ) ;
#186 = UNCERTAINTY_MEASURE_WITH_UNIT (LENGTH_MEASURE( 1.000000000000000082E-05 ), #204, 'distance_accuracy_value', 'NONE');
#187 = DIRECTION ( 'NONE',  ( 3.491481338843133355E-15, -0.0000000000000000000, 1.000000000000000000 ) ) ;
#188 = DIRECTION ( 'NONE',  ( 1.000000000000000000, 0.0000000000000000000, -3.652049423109069602E-15 ) ) ;
#189 = PRODUCT_DEFINITION_SHAPE ( 'NONE', 'NONE',  #22 ) ;
#190 = AXIS2_PLACEMENT_3D ( 'NONE', #236, #216, #162 ) ;
#191 = ORIENTED_EDGE ( 'NONE', *, *, #176, .T. ) ;
#192 = AXIS2_PLACEMENT_3D ( 'NONE', #149, #33, #74 ) ;
#193 = ORIENTED_EDGE ( 'NONE', *, *, #170, .T. ) ;
#194 = CARTESIAN_POINT ( 'NONE',  ( 2.455195133053347890E-14, 0.0000000000000000000, 7.031958343122211019 ) ) ;
#195 = DATE_TIME_ROLE ( 'classification_date' ) ;
#196 = CC_DESIGN_PERSON_AND_ORGANIZATION_ASSIGNMENT ( #106, #178, ( #13 ) ) ;
#197 = PERSON_AND_ORGANIZATION_ROLE ( 'creator' ) ;
#198 = TOROIDAL_SURFACE ( 'NONE', #42, 2.949999999999999734, 2.000000000000000000 ) ;
#199 = COORDINATED_UNIVERSAL_TIME_OFFSET ( 1, 0, .AHEAD. ) ;
#200 = DIRECTION ( 'NONE',  ( 3.491481338843133355E-15, -0.0000000000000000000, 1.000000000000000000 ) ) ;
#201 = VERTEX_POINT ( 'NONE', #111 ) ;
#202 = DIRECTION ( 'NONE',  ( -3.491481338843133355E-15, 0.0000000000000000000, -1.000000000000000000 ) ) ;
#203 = CARTESIAN_POINT ( 'NONE',  ( 0.9499999999999998446, 0.0000000000000000000, -3.316907553494376269E-15 ) ) ;
#204 =( LENGTH_UNIT ( ) NAMED_UNIT ( * ) SI_UNIT ( .MILLI., .METRE. ) );
#205 = ADVANCED_FACE ( 'NONE', ( #183, #91 ), #179, .T. ) ;
#206 = AXIS2_PLACEMENT_3D ( 'NONE', #36, #94, #58 ) ;
#207 = CARTESIAN_POINT ( 'NONE',  ( 9.950721815702931640E-15, 0.0000000000000000000, 2.850000000000000089 ) ) ;
#208 = CIRCLE ( 'NONE', #243, 0.9499999999999995115 ) ;
#209 = ORIENTED_EDGE ( 'NONE', *, *, #176, .F. ) ;
#210 = LOCAL_TIME ( 7, 47, 12.00000000000000000, #90 ) ;
#211 = FACE_BOUND ( 'NONE', #65, .T. ) ;
#212 = ADVANCED_FACE ( 'NONE', ( #181, #164 ), #238, .T. ) ;
#213 = CC_DESIGN_PERSON_AND_ORGANIZATION_ASSIGNMENT ( #75, #148, ( #229 ) ) ;
#214 = APPROVAL_STATUS ( 'not_yet_approved' ) ;
#215 = ADVANCED_FACE ( 'NONE', ( #76 ), #241, .F. ) ;
#216 = DIRECTION ( 'NONE',  ( 3.491481338843133355E-15, -0.0000000000000000000, 1.000000000000000000 ) ) ;
#217 = PERSON_AND_ORGANIZATION ( #118, #88 ) ;
#218 = CARTESIAN_POINT ( 'NONE',  ( 2.000000000000131450, 0.0000000000000000000, 37.59999999999999432 ) ) ;
#219 = DIRECTION ( 'NONE',  ( 1.000000000000000000, 0.0000000000000000000, -3.491481338843133355E-15 ) ) ;
#220 = VERTEX_POINT ( 'NONE', #218 ) ;
#221 = APPLICATION_PROTOCOL_DEFINITION ( 'international standard', 'config_control_design', 1994, #53 ) ;
#222 = ADVANCED_FACE ( 'NONE', ( #182, #239 ), #134, .T. ) ;
#223 = AXIS2_PLACEMENT_3D ( 'NONE', #194, #24, #20 ) ;
#224 = CC_DESIGN_APPROVAL ( #171, ( #2 ) ) ;
#225 = MANIFOLD_SOLID_BREP ( 'Corps-Déplacer/Copier1[1]', #107 ) ;
#226 = FACE_OUTER_BOUND ( 'NONE', #6, .T. ) ;
#227 = CARTESIAN_POINT ( 'NONE',  ( 1.326762908760390423E-13, 0.0000000000000000000, 38.00000000000000000 ) ) ;
#228 = MANIFOLD_SOLID_BREP ( 'Corps-Déplacer/Copier1[2]', #133 ) ;
#229 = PRODUCT ( '334871', '334871', '', ( #240 ) ) ;
#230 = ORIENTED_EDGE ( 'NONE', *, *, #104, .F. ) ;
#231 = EDGE_LOOP ( 'NONE', ( #193 ) ) ;
#232 = SHAPE_DEFINITION_REPRESENTATION ( #189, #156 ) ;
#233 = AXIS2_PLACEMENT_3D ( 'NONE', #135, #19, #40 ) ;
#234 = APPROVAL_ROLE ( '' ) ;
#235 = LOCAL_TIME ( 7, 47, 12.00000000000000000, #180 ) ;
#236 = CARTESIAN_POINT ( 'NONE',  ( -9.831781012932406109E-37, 0.0000000000000000000, -2.815934000148506281E-22 ) ) ;
#237 = PERSON_AND_ORGANIZATION_ROLE ( 'creator' ) ;
#238 = CYLINDRICAL_SURFACE ( 'NONE', #79, 2.000000000000000000 ) ;
#239 = FACE_BOUND ( 'NONE', #123, .T. ) ;
#240 = MECHANICAL_CONTEXT ( 'NONE', #8, 'mechanical' ) ;
#241 = PLANE ( 'NONE',  #69 ) ;
#242 = DESIGN_CONTEXT ( 'detailed design', #53, 'design' ) ;
#243 = AXIS2_PLACEMENT_3D ( 'NONE', #1, #80, #188 ) ;
ENDSEC;
END-ISO-10303-21;
