ISO-10303-21;
HEADER;
FILE_DESCRIPTION (( 'STEP AP203' ),
    '1' );
FILE_NAME ('334870.step',
    '2021-11-09T06:47:12',
    ( '' ),
    ( '' ),
    'SwSTEP 2.0',
    'SolidWorks 2019',
    '' );
FILE_SCHEMA (( 'CONFIG_CONTROL_DESIGN' ));
ENDSEC;

DATA;
#1 = EDGE_LOOP ( 'NONE', ( #112 ) ) ;
#2 = LOCAL_TIME ( 7, 47, 12.00000000000000000, #148 ) ;
#3 = EDGE_LOOP ( 'NONE', ( #167 ) ) ;
#4 = DIRECTION ( 'NONE',  ( 1.000000000000000000, 0.0000000000000000000, -3.491481338843133750E-15 ) ) ;
#5 = APPLICATION_CONTEXT ( 'configuration controlled 3d designs of mechanical parts and assemblies' ) ;
#6 = LOCAL_TIME ( 7, 47, 12.00000000000000000, #108 ) ;
#7 = DIRECTION ( 'NONE',  ( -1.000000000000000000, 0.0000000000000000000, 3.491481338843133355E-15 ) ) ;
#8 = DIRECTION ( 'NONE',  ( 1.000000000000000000, 0.0000000000000000000, -3.491481338843133355E-15 ) ) ;
#9 = CC_DESIGN_PERSON_AND_ORGANIZATION_ASSIGNMENT ( #242, #149, ( #119 ) ) ;
#10 = CARTESIAN_POINT ( 'NONE',  ( 2.467974841721909159E-14, 0.0000000000000000000, 7.068560883500662584 ) ) ;
#11 = APPLICATION_PROTOCOL_DEFINITION ( 'international standard', 'config_control_design', 1994, #5 ) ;
#12 = DIRECTION ( 'NONE',  ( 1.000000000000000000, 0.0000000000000000000, 0.0000000000000000000 ) ) ;
#13 = AXIS2_PLACEMENT_3D ( 'NONE', #10, #22, #84 ) ;
#14 = APPROVAL_PERSON_ORGANIZATION ( #20, #195, #224 ) ;
#15 = PERSON_AND_ORGANIZATION_ROLE ( 'design_owner' ) ;
#16 = PLANE ( 'NONE',  #186 ) ;
#17 = ADVANCED_FACE ( 'NONE', ( #189 ), #16, .F. ) ;
#18 = DATE_AND_TIME ( #56, #2 ) ;
#19 = ORIENTED_EDGE ( 'NONE', *, *, #177, .T. ) ;
#20 = PERSON_AND_ORGANIZATION ( #53, #50 ) ;
#21 = EDGE_LOOP ( 'NONE', ( #222 ) ) ;
#22 = DIRECTION ( 'NONE',  ( 3.491481338843133355E-15, -0.0000000000000000000, 1.000000000000000000 ) ) ;
#23 = ADVANCED_FACE ( 'NONE', ( #172, #215 ), #106, .F. ) ;
#24 = CARTESIAN_POINT ( 'NONE',  ( 0.0000000000000000000, 0.0000000000000000000, 0.0000000000000000000 ) ) ;
#25 = PLANE ( 'NONE',  #159 ) ;
#26 = AXIS2_PLACEMENT_3D ( 'NONE', #236, #49, #67 ) ;
#27 = CARTESIAN_POINT ( 'NONE',  ( 2.467974841721909159E-14, 0.0000000000000000000, 7.068560883500662584 ) ) ;
#28 = FACE_OUTER_BOUND ( 'NONE', #3, .T. ) ;
#29 = PERSON_AND_ORGANIZATION ( #53, #50 ) ;
#30 = PERSON_AND_ORGANIZATION_ROLE ( 'creator' ) ;
#31 =( GEOMETRIC_REPRESENTATION_CONTEXT ( 3 ) GLOBAL_UNCERTAINTY_ASSIGNED_CONTEXT ( ( #170 ) ) GLOBAL_UNIT_ASSIGNED_CONTEXT ( ( #217, #70, #111 ) ) REPRESENTATION_CONTEXT ( 'NONE', 'WORKASPACE' ) );
#32 = VERTEX_POINT ( 'NONE', #109 ) ;
#33 = DATE_AND_TIME ( #51, #37 ) ;
#34 = COORDINATED_UNIVERSAL_TIME_OFFSET ( 1, 0, .AHEAD. ) ;
#35 = CC_DESIGN_PERSON_AND_ORGANIZATION_ASSIGNMENT ( #190, #59, ( #45 ) ) ;
#36 = ORIENTED_EDGE ( 'NONE', *, *, #237, .T. ) ;
#37 = LOCAL_TIME ( 7, 47, 12.00000000000000000, #220 ) ;
#38 = ORIENTED_EDGE ( 'NONE', *, *, #88, .T. ) ;
#39 = CARTESIAN_POINT ( 'NONE',  ( 1.312796983405018142E-13, 0.0000000000000000000, 37.60000000000000142 ) ) ;
#40 = AXIS2_PLACEMENT_3D ( 'NONE', #233, #46, #103 ) ;
#41 = DIRECTION ( 'NONE',  ( 3.491481338843133355E-15, -0.0000000000000000000, 1.000000000000000000 ) ) ;
#42 = DIRECTION ( 'NONE',  ( 3.491481338843133355E-15, -0.0000000000000000000, 1.000000000000000000 ) ) ;
#43 = DIRECTION ( 'NONE',  ( 3.491481338843133355E-15, -0.0000000000000000000, 1.000000000000000000 ) ) ;
#44 = CIRCLE ( 'NONE', #107, 2.000000000000000000 ) ;
#45 = SECURITY_CLASSIFICATION ( '', '', #168 ) ;
#46 = DIRECTION ( 'NONE',  ( 3.491481338843133355E-15, -0.0000000000000000000, 1.000000000000000000 ) ) ;
#47 = CC_DESIGN_DATE_AND_TIME_ASSIGNMENT ( #33, #207, ( #209 ) ) ;
#48 = CARTESIAN_POINT ( 'NONE',  ( 0.9000000000000092371, 0.0000000000000000000, 2.699999999999996625 ) ) ;
#49 = DIRECTION ( 'NONE',  ( -3.491481338843133355E-15, 0.0000000000000000000, -1.000000000000000000 ) ) ;
#50 = ORGANIZATION ( 'UNSPECIFIED', 'UNSPECIFIED', '' ) ;
#51 = CALENDAR_DATE ( 2021, 9, 11 ) ;
#52 = ORIENTED_EDGE ( 'NONE', *, *, #128, .T. ) ;
#53 = PERSON ( 'UNSPECIFIED', 'UNSPECIFIED', 'UNSPECIFIED', ('UNSPECIFIED'), ('UNSPECIFIED'), ('UNSPECIFIED') ) ;
#54 = CALENDAR_DATE ( 2021, 9, 11 ) ;
#55 = PRODUCT_DEFINITION_SHAPE ( 'NONE', 'NONE',  #209 ) ;
#56 = CALENDAR_DATE ( 2021, 9, 11 ) ;
#57 = EDGE_LOOP ( 'NONE', ( #74 ) ) ;
#58 = CONICAL_SURFACE ( 'NONE', #13, 2.000000000000000000, 0.2617993877991427465 ) ;
#59 = PERSON_AND_ORGANIZATION_ROLE ( 'classification_officer' ) ;
#60 = EDGE_LOOP ( 'NONE', ( #146 ) ) ;
#61 = EDGE_LOOP ( 'NONE', ( #94 ) ) ;
#62 = DIRECTION ( 'NONE',  ( 3.491481338843133355E-15, -0.0000000000000000000, 1.000000000000000000 ) ) ;
#63 = AXIS2_PLACEMENT_3D ( 'NONE', #178, #62, #232 ) ;
#64 = CARTESIAN_POINT ( 'NONE',  ( 0.0000000000000000000, 0.0000000000000000000, 0.0000000000000000000 ) ) ;
#65 = CARTESIAN_POINT ( 'NONE',  ( -4.915890506466203054E-37, 0.0000000000000000000, -1.407967000074253141E-22 ) ) ;
#66 = DIRECTION ( 'NONE',  ( 1.000000000000000000, 0.0000000000000000000, -3.491481338843133355E-15 ) ) ;
#67 = DIRECTION ( 'NONE',  ( -1.000000000000000000, 0.0000000000000000000, 4.336808689942017736E-15 ) ) ;
#68 = ADVANCED_FACE ( 'NONE', ( #198 ), #201, .T. ) ;
#69 = PERSON_AND_ORGANIZATION ( #53, #50 ) ;
#70 =( NAMED_UNIT ( * ) PLANE_ANGLE_UNIT ( ) SI_UNIT ( $, .RADIAN. ) );
#71 = LOCAL_TIME ( 7, 47, 12.00000000000000000, #34 ) ;
#72 = EDGE_CURVE ( 'NONE', #124, #124, #241, .T. ) ;
#73 = CIRCLE ( 'NONE', #187, 0.9000000000000002442 ) ;
#74 = ORIENTED_EDGE ( 'NONE', *, *, #91, .F. ) ;
#75 = DATE_TIME_ROLE ( 'classification_date' ) ;
#76 = AXIS2_PLACEMENT_3D ( 'NONE', #214, #135, #132 ) ;
#77 = APPROVAL ( #110, 'UNSPECIFIED' ) ;
#78 = DIRECTION ( 'NONE',  ( -1.000000000000000000, 0.0000000000000000000, 3.491481338843133355E-15 ) ) ;
#79 = DIRECTION ( 'NONE',  ( 1.000000000000000000, 0.0000000000000000000, -3.469446951953614189E-15 ) ) ;
#80 = AXIS2_PLACEMENT_3D ( 'NONE', #24, #102, #8 ) ;
#81 = DIRECTION ( 'NONE',  ( -3.491481338843133355E-15, 0.0000000000000000000, -1.000000000000000000 ) ) ;
#82 = DIRECTION ( 'NONE',  ( 3.491481338843133355E-15, -0.0000000000000000000, 1.000000000000000000 ) ) ;
#83 = CC_DESIGN_PERSON_AND_ORGANIZATION_ASSIGNMENT ( #29, #15, ( #96 ) ) ;
#84 = DIRECTION ( 'NONE',  ( 1.000000000000000000, 0.0000000000000000000, -3.469446951953614189E-15 ) ) ;
#85 = AXIS2_PLACEMENT_3D ( 'NONE', #158, #136, #4 ) ;
#86 = AXIS2_PLACEMENT_3D ( 'NONE', #64, #121, #134 ) ;
#87 = APPROVAL_STATUS ( 'not_yet_approved' ) ;
#88 = EDGE_CURVE ( 'NONE', #32, #32, #93, .T. ) ;
#89 = CALENDAR_DATE ( 2021, 9, 11 ) ;
#90 = VERTEX_POINT ( 'NONE', #48 ) ;
#91 = EDGE_CURVE ( 'NONE', #105, #105, #73, .T. ) ;
#92 = APPROVAL_STATUS ( 'not_yet_approved' ) ;
#93 = CIRCLE ( 'NONE', #229, 0.8999999999999998002 ) ;
#94 = ORIENTED_EDGE ( 'NONE', *, *, #91, .T. ) ;
#95 = CC_DESIGN_PERSON_AND_ORGANIZATION_ASSIGNMENT ( #210, #129, ( #119 ) ) ;
#96 = PRODUCT ( '334870', '334870', '', ( #142 ) ) ;
#97 = COORDINATED_UNIVERSAL_TIME_OFFSET ( 1, 0, .AHEAD. ) ;
#98 = ADVANCED_FACE ( 'NONE', ( #212 ), #25, .T. ) ;
#99 = EDGE_LOOP ( 'NONE', ( #36 ) ) ;
#100 = CLOSED_SHELL ( 'NONE', ( #169, #240, #68, #23, #206, #98 ) ) ;
#101 = FACE_OUTER_BOUND ( 'NONE', #225, .T. ) ;
#102 = DIRECTION ( 'NONE',  ( 3.491481338843133355E-15, -0.0000000000000000000, 1.000000000000000000 ) ) ;
#103 = DIRECTION ( 'NONE',  ( 1.000000000000000000, 0.0000000000000000000, -3.583590222709787972E-15 ) ) ;
#104 = CARTESIAN_POINT ( 'NONE',  ( 9.426999614876461637E-15, -5.854691731421721971E-16, 2.700000000000000178 ) ) ;
#105 = VERTEX_POINT ( 'NONE', #139 ) ;
#106 = TOROIDAL_SURFACE ( 'NONE', #85, 2.899999999999999467, 2.000000000000000000 ) ;
#107 = AXIS2_PLACEMENT_3D ( 'NONE', #39, #42, #79 ) ;
#108 = COORDINATED_UNIVERSAL_TIME_OFFSET ( 1, 0, .AHEAD. ) ;
#109 = CARTESIAN_POINT ( 'NONE',  ( 0.9000000000000092371, 0.0000000000000000000, 2.699999999999996625 ) ) ;
#110 = APPROVAL_STATUS ( 'not_yet_approved' ) ;
#111 =( NAMED_UNIT ( * ) SI_UNIT ( $, .STERADIAN. ) SOLID_ANGLE_UNIT ( ) );
#112 = ORIENTED_EDGE ( 'NONE', *, *, #203, .T. ) ;
#113 = ADVANCED_FACE ( 'NONE', ( #216, #28 ), #117, .T. ) ;
#114 = CARTESIAN_POINT ( 'NONE',  ( 9.426999614876461637E-15, -5.854691731421721971E-16, 2.700000000000000178 ) ) ;
#115 = AXIS2_PLACEMENT_3D ( 'NONE', #157, #41, #197 ) ;
#116 = DIRECTION ( 'NONE',  ( -1.000000000000000000, 0.0000000000000000000, 3.491481338843133355E-15 ) ) ;
#117 = CYLINDRICAL_SURFACE ( 'NONE', #80, 0.9000000000000000222 ) ;
#118 = FACE_BOUND ( 'NONE', #1, .T. ) ;
#119 = PRODUCT_DEFINITION_FORMATION_WITH_SPECIFIED_SOURCE ( 'ANY', '', #96, .NOT_KNOWN. ) ;
#120 = LOCAL_TIME ( 7, 47, 12.00000000000000000, #97 ) ;
#121 = DIRECTION ( 'NONE',  ( 3.491481338843133355E-15, -0.0000000000000000000, 1.000000000000000000 ) ) ;
#122 = VERTEX_POINT ( 'NONE', #164 ) ;
#123 = FACE_BOUND ( 'NONE', #125, .T. ) ;
#124 = VERTEX_POINT ( 'NONE', #202 ) ;
#125 = EDGE_LOOP ( 'NONE', ( #130 ) ) ;
#126 = APPROVAL_DATE_TIME ( #18, #195 ) ;
#127 = CIRCLE ( 'NONE', #238, 2.000000000000000000 ) ;
#128 = EDGE_CURVE ( 'NONE', #163, #163, #44, .T. ) ;
#129 = PERSON_AND_ORGANIZATION_ROLE ( 'design_supplier' ) ;
#130 = ORIENTED_EDGE ( 'NONE', *, *, #72, .F. ) ;
#131 = ADVANCED_BREP_SHAPE_REPRESENTATION ( '334870', ( #147, #231, #155 ), #31 ) ;
#132 = DIRECTION ( 'NONE',  ( 1.000000000000000000, 0.0000000000000000000, -3.373073425510458853E-15 ) ) ;
#133 = CARTESIAN_POINT ( 'NONE',  ( -9.831781012932406109E-37, 0.0000000000000000000, -2.815934000148506281E-22 ) ) ;
#134 = DIRECTION ( 'NONE',  ( 1.000000000000000000, 0.0000000000000000000, -3.491481338843133355E-15 ) ) ;
#135 = DIRECTION ( 'NONE',  ( 3.491481338843133355E-15, -0.0000000000000000000, 1.000000000000000000 ) ) ;
#136 = DIRECTION ( 'NONE',  ( 3.491481338843133355E-15, -0.0000000000000000000, 1.000000000000000000 ) ) ;
#137 = CC_DESIGN_APPROVAL ( #195, ( #45 ) ) ;
#138 = PERSON_AND_ORGANIZATION ( #53, #50 ) ;
#139 = CARTESIAN_POINT ( 'NONE',  ( 0.9000000000000002442, 0.0000000000000000000, -3.142333486552220785E-15 ) ) ;
#140 = APPROVAL_ROLE ( '' ) ;
#141 = CC_DESIGN_APPROVAL ( #223, ( #209 ) ) ;
#142 = MECHANICAL_CONTEXT ( 'NONE', #213, 'mechanical' ) ;
#143 = APPROVAL_DATE_TIME ( #182, #77 ) ;
#144 = CIRCLE ( 'NONE', #40, 0.9681483474218594010 ) ;
#145 = ORIENTED_EDGE ( 'NONE', *, *, #88, .F. ) ;
#146 = ORIENTED_EDGE ( 'NONE', *, *, #237, .F. ) ;
#147 = MANIFOLD_SOLID_BREP ( 'Corps-Déplacer/Copier1[1]', #100 ) ;
#148 = COORDINATED_UNIVERSAL_TIME_OFFSET ( 1, 0, .AHEAD. ) ;
#149 = PERSON_AND_ORGANIZATION_ROLE ( 'creator' ) ;
#150 = CC_DESIGN_APPROVAL ( #77, ( #119 ) ) ;
#151 = EDGE_LOOP ( 'NONE', ( #145 ) ) ;
#152 = EDGE_LOOP ( 'NONE', ( #193 ) ) ;
#153 = DIRECTION ( 'NONE',  ( 1.000000000000000000, 0.0000000000000000000, -3.373073425510458853E-15 ) ) ;
#154 = FACE_OUTER_BOUND ( 'NONE', #21, .T. ) ;
#155 = AXIS2_PLACEMENT_3D ( 'NONE', #183, #180, #12 ) ;
#156 = CYLINDRICAL_SURFACE ( 'NONE', #86, 2.000000000000000000 ) ;
#157 = CARTESIAN_POINT ( 'NONE',  ( 1.326762908760390423E-13, 0.0000000000000000000, 38.00000000000000000 ) ) ;
#158 = CARTESIAN_POINT ( 'NONE',  ( 9.426999614876461637E-15, 0.0000000000000000000, 2.700000000000000178 ) ) ;
#159 = AXIS2_PLACEMENT_3D ( 'NONE', #104, #174, #116 ) ;
#160 = CARTESIAN_POINT ( 'NONE',  ( 2.000000000000131450, 0.0000000000000000000, 37.59999999999999432 ) ) ;
#161 = ADVANCED_FACE ( 'NONE', ( #175 ), #179, .T. ) ;
#162 = VERTEX_POINT ( 'NONE', #239 ) ;
#163 = VERTEX_POINT ( 'NONE', #160 ) ;
#164 = CARTESIAN_POINT ( 'NONE',  ( 0.9681483474218706142, 0.0000000000000000000, 3.217638090205025225 ) ) ;
#165 = EDGE_LOOP ( 'NONE', ( #38 ) ) ;
#166 = CONICAL_SURFACE ( 'NONE', #26, 1.600000000000000089, 0.7853981633974512766 ) ;
#167 = ORIENTED_EDGE ( 'NONE', *, *, #177, .F. ) ;
#168 = SECURITY_CLASSIFICATION_LEVEL ( 'unclassified' ) ;
#169 = ADVANCED_FACE ( 'NONE', ( #154, #230 ), #156, .T. ) ;
#170 = UNCERTAINTY_MEASURE_WITH_UNIT (LENGTH_MEASURE( 1.000000000000000082E-05 ), #217, 'distance_accuracy_value', 'NONE');
#171 = EDGE_LOOP ( 'NONE', ( #208 ) ) ;
#172 = FACE_OUTER_BOUND ( 'NONE', #165, .T. ) ;
#173 = PRODUCT_RELATED_PRODUCT_CATEGORY ( 'detail', '', ( #96 ) ) ;
#174 = DIRECTION ( 'NONE',  ( -3.491481338843133355E-15, 0.0000000000000000000, -1.000000000000000000 ) ) ;
#175 = FACE_OUTER_BOUND ( 'NONE', #57, .T. ) ;
#176 = APPROVAL_PERSON_ORGANIZATION ( #69, #77, #140 ) ;
#177 = EDGE_CURVE ( 'NONE', #90, #90, #221, .T. ) ;
#178 = CARTESIAN_POINT ( 'NONE',  ( 1.326762908760390423E-13, 0.0000000000000000000, 38.00000000000000000 ) ) ;
#179 = PLANE ( 'NONE',  #181 ) ;
#180 = DIRECTION ( 'NONE',  ( 0.0000000000000000000, 0.0000000000000000000, 1.000000000000000000 ) ) ;
#181 = AXIS2_PLACEMENT_3D ( 'NONE', #65, #81, #7 ) ;
#182 = DATE_AND_TIME ( #185, #71 ) ;
#183 = CARTESIAN_POINT ( 'NONE',  ( 0.0000000000000000000, 0.0000000000000000000, 0.0000000000000000000 ) ) ;
#184 = CC_DESIGN_PERSON_AND_ORGANIZATION_ASSIGNMENT ( #205, #30, ( #209 ) ) ;
#185 = CALENDAR_DATE ( 2021, 9, 11 ) ;
#186 = AXIS2_PLACEMENT_3D ( 'NONE', #114, #228, #78 ) ;
#187 = AXIS2_PLACEMENT_3D ( 'NONE', #133, #43, #66 ) ;
#188 = CC_DESIGN_SECURITY_CLASSIFICATION ( #45, ( #119 ) ) ;
#189 = FACE_OUTER_BOUND ( 'NONE', #191, .T. ) ;
#190 = PERSON_AND_ORGANIZATION ( #53, #50 ) ;
#191 = EDGE_LOOP ( 'NONE', ( #19 ) ) ;
#192 = DESIGN_CONTEXT ( 'detailed design', #5, 'design' ) ;
#193 = ORIENTED_EDGE ( 'NONE', *, *, #72, .T. ) ;
#194 = CLOSED_SHELL ( 'NONE', ( #161, #113, #17 ) ) ;
#195 = APPROVAL ( #92, 'UNSPECIFIED' ) ;
#196 = CARTESIAN_POINT ( 'NONE',  ( 9.426999614876460059E-15, 0.0000000000000000000, 2.699999999999999734 ) ) ;
#197 = DIRECTION ( 'NONE',  ( 1.000000000000000000, 0.0000000000000000000, -3.491481338843133355E-15 ) ) ;
#198 = FACE_OUTER_BOUND ( 'NONE', #152, .T. ) ;
#199 = FACE_OUTER_BOUND ( 'NONE', #60, .T. ) ;
#200 = APPROVAL_PERSON_ORGANIZATION ( #138, #223, #218 ) ;
#201 = PLANE ( 'NONE',  #115 ) ;
#202 = CARTESIAN_POINT ( 'NONE',  ( 1.600000000000132871, 0.0000000000000000000, 37.99999999999999289 ) ) ;
#203 = EDGE_CURVE ( 'NONE', #122, #122, #144, .T. ) ;
#204 = DATE_AND_TIME ( #89, #6 ) ;
#205 = PERSON_AND_ORGANIZATION ( #53, #50 ) ;
#206 = ADVANCED_FACE ( 'NONE', ( #118, #199 ), #58, .T. ) ;
#207 = DATE_TIME_ROLE ( 'creation_date' ) ;
#208 = ORIENTED_EDGE ( 'NONE', *, *, #203, .F. ) ;
#209 = PRODUCT_DEFINITION ( 'UNKNOWN', '', #119, #192 ) ;
#210 = PERSON_AND_ORGANIZATION ( #53, #50 ) ;
#211 = DIRECTION ( 'NONE',  ( 1.000000000000000000, 0.0000000000000000000, -3.469446951953614189E-15 ) ) ;
#212 = FACE_OUTER_BOUND ( 'NONE', #151, .T. ) ;
#213 = APPLICATION_CONTEXT ( 'configuration controlled 3d designs of mechanical parts and assemblies' ) ;
#214 = CARTESIAN_POINT ( 'NONE',  ( 9.426999614876460059E-15, 0.0000000000000000000, 2.699999999999999734 ) ) ;
#215 = FACE_OUTER_BOUND ( 'NONE', #171, .T. ) ;
#216 = FACE_OUTER_BOUND ( 'NONE', #61, .T. ) ;
#217 =( LENGTH_UNIT ( ) NAMED_UNIT ( * ) SI_UNIT ( .MILLI., .METRE. ) );
#218 = APPROVAL_ROLE ( '' ) ;
#219 = APPROVAL_DATE_TIME ( #204, #223 ) ;
#220 = COORDINATED_UNIVERSAL_TIME_OFFSET ( 1, 0, .AHEAD. ) ;
#221 = CIRCLE ( 'NONE', #76, 0.8999999999999998002 ) ;
#222 = ORIENTED_EDGE ( 'NONE', *, *, #128, .F. ) ;
#223 = APPROVAL ( #87, 'UNSPECIFIED' ) ;
#224 = APPROVAL_ROLE ( '' ) ;
#225 = EDGE_LOOP ( 'NONE', ( #52 ) ) ;
#226 = SHAPE_DEFINITION_REPRESENTATION ( #55, #131 ) ;
#227 = CC_DESIGN_DATE_AND_TIME_ASSIGNMENT ( #243, #75, ( #45 ) ) ;
#228 = DIRECTION ( 'NONE',  ( -3.491481338843133355E-15, 0.0000000000000000000, -1.000000000000000000 ) ) ;
#229 = AXIS2_PLACEMENT_3D ( 'NONE', #196, #82, #153 ) ;
#230 = FACE_OUTER_BOUND ( 'NONE', #99, .T. ) ;
#231 = MANIFOLD_SOLID_BREP ( 'Corps-Déplacer/Copier1[2]', #194 ) ;
#232 = DIRECTION ( 'NONE',  ( 1.000000000000000000, 0.0000000000000000000, -4.336808689942017736E-15 ) ) ;
#233 = CARTESIAN_POINT ( 'NONE',  ( 1.123432334710171644E-14, 0.0000000000000000000, 3.217638090205028778 ) ) ;
#234 = DIRECTION ( 'NONE',  ( 3.491481338843133355E-15, -0.0000000000000000000, 1.000000000000000000 ) ) ;
#235 = APPLICATION_PROTOCOL_DEFINITION ( 'international standard', 'config_control_design', 1994, #213 ) ;
#236 = CARTESIAN_POINT ( 'NONE',  ( 1.326762908760390423E-13, 0.0000000000000000000, 38.00000000000000000 ) ) ;
#237 = EDGE_CURVE ( 'NONE', #162, #162, #127, .T. ) ;
#238 = AXIS2_PLACEMENT_3D ( 'NONE', #27, #234, #211 ) ;
#239 = CARTESIAN_POINT ( 'NONE',  ( 2.000000000000024869, 0.0000000000000000000, 7.068560883500655478 ) ) ;
#240 = ADVANCED_FACE ( 'NONE', ( #101, #123 ), #166, .T. ) ;
#241 = CIRCLE ( 'NONE', #63, 1.600000000000000089 ) ;
#242 = PERSON_AND_ORGANIZATION ( #53, #50 ) ;
#243 = DATE_AND_TIME ( #54, #120 ) ;
ENDSEC;
END-ISO-10303-21;
