ISO-10303-21;
HEADER;
FILE_DESCRIPTION (( 'STEP AP203' ),
    '1' );
FILE_NAME ('334869.step',
    '2021-11-09T06:47:11',
    ( '' ),
    ( '' ),
    'SwSTEP 2.0',
    'SolidWorks 2019',
    '' );
FILE_SCHEMA (( 'CONFIG_CONTROL_DESIGN' ));
ENDSEC;

DATA;
#1 = DIRECTION ( 'NONE',  ( -3.491481338843133355E-15, 0.0000000000000000000, -1.000000000000000000 ) ) ;
#2 = ORIENTED_EDGE ( 'NONE', *, *, #57, .F. ) ;
#3 = DIRECTION ( 'NONE',  ( 3.491481338843133355E-15, -0.0000000000000000000, 1.000000000000000000 ) ) ;
#4 = DIRECTION ( 'NONE',  ( -3.491481338843133355E-15, 0.0000000000000000000, -1.000000000000000000 ) ) ;
#5 = EDGE_CURVE ( 'NONE', #204, #204, #125, .T. ) ;
#6 = CIRCLE ( 'NONE', #143, 0.8500000000000000888 ) ;
#7 = ADVANCED_FACE ( 'NONE', ( #211, #100 ), #212, .F. ) ;
#8 = AXIS2_PLACEMENT_3D ( 'NONE', #150, #153, #61 ) ;
#9 = CC_DESIGN_APPROVAL ( #120, ( #192 ) ) ;
#10 = ADVANCED_FACE ( 'NONE', ( #225, #86 ), #173, .T. ) ;
#11 = SECURITY_CLASSIFICATION_LEVEL ( 'unclassified' ) ;
#12 = CARTESIAN_POINT ( 'NONE',  ( 0.8500000000000085265, 0.0000000000000000000, 2.549999999999995826 ) ) ;
#13 = ORIENTED_EDGE ( 'NONE', *, *, #186, .F. ) ;
#14 = PERSON_AND_ORGANIZATION_ROLE ( 'classification_officer' ) ;
#15 = EDGE_LOOP ( 'NONE', ( #99 ) ) ;
#16 = CARTESIAN_POINT ( 'NONE',  ( 0.9181483474218699037, 0.0000000000000000000, 3.067638090205024870 ) ) ;
#17 = VERTEX_POINT ( 'NONE', #81 ) ;
#18 = APPLICATION_CONTEXT ( 'configuration controlled 3d designs of mechanical parts and assemblies' ) ;
#19 = CC_DESIGN_PERSON_AND_ORGANIZATION_ASSIGNMENT ( #76, #73, ( #192 ) ) ;
#20 =( LENGTH_UNIT ( ) NAMED_UNIT ( * ) SI_UNIT ( .MILLI., .METRE. ) );
#21 = APPROVAL_ROLE ( '' ) ;
#22 = ORIENTED_EDGE ( 'NONE', *, *, #156, .T. ) ;
#23 = DIRECTION ( 'NONE',  ( 3.491481338843133355E-15, -0.0000000000000000000, 1.000000000000000000 ) ) ;
#24 = ADVANCED_FACE ( 'NONE', ( #47, #243 ), #208, .T. ) ;
#25 = DIRECTION ( 'NONE',  ( 1.000000000000000000, 0.0000000000000000000, -3.469446951953614189E-15 ) ) ;
#26 = DIRECTION ( 'NONE',  ( 3.491481338843133355E-15, -0.0000000000000000000, 1.000000000000000000 ) ) ;
#27 = APPROVAL_PERSON_ORGANIZATION ( #233, #120, #129 ) ;
#28 = CC_DESIGN_SECURITY_CLASSIFICATION ( #175, ( #144 ) ) ;
#29 = CIRCLE ( 'NONE', #8, 0.8499999999999996447 ) ;
#30 = APPROVAL_DATE_TIME ( #179, #176 ) ;
#31 = VERTEX_POINT ( 'NONE', #184 ) ;
#32 = EDGE_LOOP ( 'NONE', ( #64 ) ) ;
#33 = PERSON ( 'UNSPECIFIED', 'UNSPECIFIED', 'UNSPECIFIED', ('UNSPECIFIED'), ('UNSPECIFIED'), ('UNSPECIFIED') ) ;
#34 = PERSON_AND_ORGANIZATION ( #33, #43 ) ;
#35 = DIRECTION ( 'NONE',  ( 3.491481338843133355E-15, -0.0000000000000000000, 1.000000000000000000 ) ) ;
#36 = EDGE_CURVE ( 'NONE', #37, #37, #121, .T. ) ;
#37 = VERTEX_POINT ( 'NONE', #16 ) ;
#38 = DATE_AND_TIME ( #95, #124 ) ;
#39 = EDGE_LOOP ( 'NONE', ( #169 ) ) ;
#40 = UNCERTAINTY_MEASURE_WITH_UNIT (LENGTH_MEASURE( 1.000000000000000082E-05 ), #20, 'distance_accuracy_value', 'NONE');
#41 = PERSON_AND_ORGANIZATION ( #33, #43 ) ;
#42 = CARTESIAN_POINT ( 'NONE',  ( 1.326762908760390423E-13, 0.0000000000000000000, 38.00000000000000000 ) ) ;
#43 = ORGANIZATION ( 'UNSPECIFIED', 'UNSPECIFIED', '' ) ;
#44 = DIRECTION ( 'NONE',  ( 3.491481338843133355E-15, -0.0000000000000000000, 1.000000000000000000 ) ) ;
#45 = FACE_OUTER_BOUND ( 'NONE', #32, .T. ) ;
#46 = ADVANCED_FACE ( 'NONE', ( #102 ), #138, .T. ) ;
#47 = FACE_OUTER_BOUND ( 'NONE', #113, .T. ) ;
#48 = AXIS2_PLACEMENT_3D ( 'NONE', #101, #1, #112 ) ;
#49 = CARTESIAN_POINT ( 'NONE',  ( 8.903277414049985323E-15, 0.0000000000000000000, 2.549999999999998934 ) ) ;
#50 = EDGE_LOOP ( 'NONE', ( #75 ) ) ;
#51 = CONICAL_SURFACE ( 'NONE', #215, 2.000000000000000000, 0.2617993877991428575 ) ;
#52 = PERSON_AND_ORGANIZATION ( #33, #43 ) ;
#53 = APPROVAL_STATUS ( 'not_yet_approved' ) ;
#54 = DATE_AND_TIME ( #161, #154 ) ;
#55 = CARTESIAN_POINT ( 'NONE',  ( 0.0000000000000000000, 0.0000000000000000000, 0.0000000000000000000 ) ) ;
#56 = MANIFOLD_SOLID_BREP ( 'Corps-Déplacer/Copier1[2]', #62 ) ;
#57 = EDGE_CURVE ( 'NONE', #31, #31, #127, .T. ) ;
#58 =( NAMED_UNIT ( * ) PLANE_ANGLE_UNIT ( ) SI_UNIT ( $, .RADIAN. ) );
#59 = COORDINATED_UNIVERSAL_TIME_OFFSET ( 1, 0, .AHEAD. ) ;
#60 = ORIENTED_EDGE ( 'NONE', *, *, #5, .T. ) ;
#61 = DIRECTION ( 'NONE',  ( 1.000000000000000000, 0.0000000000000000000, -3.571489509364016462E-15 ) ) ;
#62 = CLOSED_SHELL ( 'NONE', ( #130, #213, #177 ) ) ;
#63 = DIRECTION ( 'NONE',  ( 3.491481338843133355E-15, -0.0000000000000000000, 1.000000000000000000 ) ) ;
#64 = ORIENTED_EDGE ( 'NONE', *, *, #156, .F. ) ;
#65 = CARTESIAN_POINT ( 'NONE',  ( 0.0000000000000000000, 0.0000000000000000000, 0.0000000000000000000 ) ) ;
#66 = CC_DESIGN_APPROVAL ( #103, ( #175 ) ) ;
#67 = CC_DESIGN_DATE_AND_TIME_ASSIGNMENT ( #54, #131, ( #175 ) ) ;
#68 = DIRECTION ( 'NONE',  ( -3.491481338843133355E-15, 0.0000000000000000000, -1.000000000000000000 ) ) ;
#69 = AXIS2_PLACEMENT_3D ( 'NONE', #117, #68, #134 ) ;
#70 = LOCAL_TIME ( 7, 47, 11.00000000000000000, #200 ) ;
#71 = AXIS2_PLACEMENT_3D ( 'NONE', #136, #44, #25 ) ;
#72 = DIRECTION ( 'NONE',  ( 1.000000000000000000, 0.0000000000000000000, -3.571489509364016462E-15 ) ) ;
#73 = PERSON_AND_ORGANIZATION_ROLE ( 'creator' ) ;
#74 = FACE_OUTER_BOUND ( 'NONE', #180, .T. ) ;
#75 = ORIENTED_EDGE ( 'NONE', *, *, #5, .F. ) ;
#76 = PERSON_AND_ORGANIZATION ( #33, #43 ) ;
#77 = DIRECTION ( 'NONE',  ( 0.0000000000000000000, 0.0000000000000000000, 1.000000000000000000 ) ) ;
#78 = ORIENTED_EDGE ( 'NONE', *, *, #36, .F. ) ;
#79 = CC_DESIGN_DATE_AND_TIME_ASSIGNMENT ( #111, #145, ( #192 ) ) ;
#80 = AXIS2_PLACEMENT_3D ( 'NONE', #171, #63, #122 ) ;
#81 = CARTESIAN_POINT ( 'NONE',  ( 0.8500000000000000888, 0.0000000000000000000, -2.967759419610063328E-15 ) ) ;
#82 = CARTESIAN_POINT ( 'NONE',  ( 2.000000000000024869, 0.0000000000000000000, 7.105163423879102602 ) ) ;
#83 = DIRECTION ( 'NONE',  ( 1.000000000000000000, 0.0000000000000000000, -3.469446951953614189E-15 ) ) ;
#84 = ORIENTED_EDGE ( 'NONE', *, *, #186, .T. ) ;
#85 = CARTESIAN_POINT ( 'NONE',  ( 1.071060114627524328E-14, 0.0000000000000000000, 3.067638090205027979 ) ) ;
#86 = FACE_OUTER_BOUND ( 'NONE', #163, .T. ) ;
#87 = DIRECTION ( 'NONE',  ( 3.491481338843133355E-15, -0.0000000000000000000, 1.000000000000000000 ) ) ;
#88 = DIRECTION ( 'NONE',  ( 1.000000000000000000, 0.0000000000000000000, -3.491481338843133355E-15 ) ) ;
#89 = AXIS2_PLACEMENT_3D ( 'NONE', #55, #35, #168 ) ;
#90 = PERSON_AND_ORGANIZATION ( #33, #43 ) ;
#91 = COORDINATED_UNIVERSAL_TIME_OFFSET ( 1, 0, .AHEAD. ) ;
#92 = CALENDAR_DATE ( 2021, 9, 11 ) ;
#93 = MECHANICAL_CONTEXT ( 'NONE', #190, 'mechanical' ) ;
#94 = AXIS2_PLACEMENT_3D ( 'NONE', #229, #23, #83 ) ;
#95 = CALENDAR_DATE ( 2021, 9, 11 ) ;
#96 = EDGE_LOOP ( 'NONE', ( #140 ) ) ;
#97 = CC_DESIGN_APPROVAL ( #176, ( #144 ) ) ;
#98 = DIRECTION ( 'NONE',  ( 1.000000000000000000, 0.0000000000000000000, -3.491481338843132961E-15 ) ) ;
#99 = ORIENTED_EDGE ( 'NONE', *, *, #36, .T. ) ;
#100 = FACE_OUTER_BOUND ( 'NONE', #133, .T. ) ;
#101 = CARTESIAN_POINT ( 'NONE',  ( 8.903277414049986901E-15, -5.529431079676070641E-16, 2.549999999999999378 ) ) ;
#102 = FACE_OUTER_BOUND ( 'NONE', #234, .T. ) ;
#103 = APPROVAL ( #116, 'UNSPECIFIED' ) ;
#104 = PLANE ( 'NONE',  #69 ) ;
#105 = EDGE_CURVE ( 'NONE', #217, #217, #29, .T. ) ;
#106 = CC_DESIGN_PERSON_AND_ORGANIZATION_ASSIGNMENT ( #90, #14, ( #175 ) ) ;
#107 = AXIS2_PLACEMENT_3D ( 'NONE', #119, #155, #196 ) ;
#108 = PERSON_AND_ORGANIZATION ( #33, #43 ) ;
#109 = VERTEX_POINT ( 'NONE', #132 ) ;
#110 = ADVANCED_FACE ( 'NONE', ( #227 ), #104, .T. ) ;
#111 = DATE_AND_TIME ( #232, #231 ) ;
#112 = DIRECTION ( 'NONE',  ( -1.000000000000000000, 0.0000000000000000000, 3.491481338843133355E-15 ) ) ;
#113 = EDGE_LOOP ( 'NONE', ( #152 ) ) ;
#114 =( GEOMETRIC_REPRESENTATION_CONTEXT ( 3 ) GLOBAL_UNCERTAINTY_ASSIGNED_CONTEXT ( ( #40 ) ) GLOBAL_UNIT_ASSIGNED_CONTEXT ( ( #20, #58, #149 ) ) REPRESENTATION_CONTEXT ( 'NONE', 'WORKASPACE' ) );
#115 = FACE_OUTER_BOUND ( 'NONE', #222, .T. ) ;
#116 = APPROVAL_STATUS ( 'not_yet_approved' ) ;
#117 = CARTESIAN_POINT ( 'NONE',  ( 8.903277414049986901E-15, -5.529431079676070641E-16, 2.549999999999999378 ) ) ;
#118 = FACE_OUTER_BOUND ( 'NONE', #39, .T. ) ;
#119 = CARTESIAN_POINT ( 'NONE',  ( 8.903277414049986901E-15, 0.0000000000000000000, 2.549999999999999378 ) ) ;
#120 = APPROVAL ( #53, 'UNSPECIFIED' ) ;
#121 = CIRCLE ( 'NONE', #195, 0.9181483474218592455 ) ;
#122 = DIRECTION ( 'NONE',  ( 1.000000000000000000, 0.0000000000000000000, -4.336808689942017736E-15 ) ) ;
#123 = PRODUCT_DEFINITION_SHAPE ( 'NONE', 'NONE',  #192 ) ;
#124 = LOCAL_TIME ( 7, 47, 11.00000000000000000, #59 ) ;
#125 = CIRCLE ( 'NONE', #159, 0.8499999999999996447 ) ;
#126 = CC_DESIGN_PERSON_AND_ORGANIZATION_ASSIGNMENT ( #108, #181, ( #144 ) ) ;
#127 = CIRCLE ( 'NONE', #80, 1.600000000000000089 ) ;
#128 = APPROVAL_ROLE ( '' ) ;
#129 = APPROVAL_ROLE ( '' ) ;
#130 = ADVANCED_FACE ( 'NONE', ( #241 ), #158, .T. ) ;
#131 = DATE_TIME_ROLE ( 'classification_date' ) ;
#132 = CARTESIAN_POINT ( 'NONE',  ( 2.000000000000131450, 0.0000000000000000000, 37.59999999999999432 ) ) ;
#133 = EDGE_LOOP ( 'NONE', ( #78 ) ) ;
#134 = DIRECTION ( 'NONE',  ( -1.000000000000000000, 0.0000000000000000000, 3.491481338843133355E-15 ) ) ;
#135 = CIRCLE ( 'NONE', #71, 2.000000000000000000 ) ;
#136 = CARTESIAN_POINT ( 'NONE',  ( 2.480754550390469482E-14, 0.0000000000000000000, 7.105163423879108819 ) ) ;
#137 = APPROVAL_PERSON_ORGANIZATION ( #34, #103, #21 ) ;
#138 = PLANE ( 'NONE',  #167 ) ;
#139 = DIRECTION ( 'NONE',  ( 3.491481338843133355E-15, -0.0000000000000000000, 1.000000000000000000 ) ) ;
#140 = ORIENTED_EDGE ( 'NONE', *, *, #141, .F. ) ;
#141 = EDGE_CURVE ( 'NONE', #109, #109, #239, .T. ) ;
#142 = MANIFOLD_SOLID_BREP ( 'Corps-Déplacer/Copier1[1]', #226 ) ;
#143 = AXIS2_PLACEMENT_3D ( 'NONE', #166, #165, #98 ) ;
#144 = PRODUCT_DEFINITION_FORMATION_WITH_SPECIFIED_SOURCE ( 'ANY', '', #157, .NOT_KNOWN. ) ;
#145 = DATE_TIME_ROLE ( 'creation_date' ) ;
#146 = DIRECTION ( 'NONE',  ( 1.000000000000000000, 0.0000000000000000000, 0.0000000000000000000 ) ) ;
#147 = EDGE_LOOP ( 'NONE', ( #2 ) ) ;
#148 = CALENDAR_DATE ( 2021, 9, 11 ) ;
#149 =( NAMED_UNIT ( * ) SI_UNIT ( $, .STERADIAN. ) SOLID_ANGLE_UNIT ( ) );
#150 = CARTESIAN_POINT ( 'NONE',  ( 8.903277414049985323E-15, 0.0000000000000000000, 2.549999999999998934 ) ) ;
#151 = CARTESIAN_POINT ( 'NONE',  ( 1.326762908760390423E-13, 0.0000000000000000000, 38.00000000000000000 ) ) ;
#152 = ORIENTED_EDGE ( 'NONE', *, *, #141, .T. ) ;
#153 = DIRECTION ( 'NONE',  ( 3.491481338843133355E-15, -0.0000000000000000000, 1.000000000000000000 ) ) ;
#154 = LOCAL_TIME ( 7, 47, 11.00000000000000000, #91 ) ;
#155 = DIRECTION ( 'NONE',  ( 3.491481338843133355E-15, -0.0000000000000000000, 1.000000000000000000 ) ) ;
#156 = EDGE_CURVE ( 'NONE', #238, #238, #135, .T. ) ;
#157 = PRODUCT ( '334869', '334869', '', ( #93 ) ) ;
#158 = PLANE ( 'NONE',  #198 ) ;
#159 = AXIS2_PLACEMENT_3D ( 'NONE', #49, #197, #72 ) ;
#160 = ADVANCED_FACE ( 'NONE', ( #193, #45 ), #51, .T. ) ;
#161 = CALENDAR_DATE ( 2021, 9, 11 ) ;
#162 = APPLICATION_PROTOCOL_DEFINITION ( 'international standard', 'config_control_design', 1994, #18 ) ;
#163 = EDGE_LOOP ( 'NONE', ( #22 ) ) ;
#164 = DATE_AND_TIME ( #92, #199 ) ;
#165 = DIRECTION ( 'NONE',  ( 3.491481338843133355E-15, -0.0000000000000000000, 1.000000000000000000 ) ) ;
#166 = CARTESIAN_POINT ( 'NONE',  ( -9.831781012932406109E-37, 0.0000000000000000000, -2.815934000148506281E-22 ) ) ;
#167 = AXIS2_PLACEMENT_3D ( 'NONE', #151, #139, #88 ) ;
#168 = DIRECTION ( 'NONE',  ( 1.000000000000000000, 0.0000000000000000000, -3.491481338843133355E-15 ) ) ;
#169 = ORIENTED_EDGE ( 'NONE', *, *, #105, .T. ) ;
#170 = DIRECTION ( 'NONE',  ( 1.000000000000000000, 0.0000000000000000000, -3.491481338843133355E-15 ) ) ;
#171 = CARTESIAN_POINT ( 'NONE',  ( 1.326762908760390423E-13, 0.0000000000000000000, 38.00000000000000000 ) ) ;
#172 = DIRECTION ( 'NONE',  ( -1.000000000000000000, 0.0000000000000000000, 4.336808689942017736E-15 ) ) ;
#173 = CYLINDRICAL_SURFACE ( 'NONE', #178, 2.000000000000000000 ) ;
#174 = AXIS2_PLACEMENT_3D ( 'NONE', #206, #77, #146 ) ;
#175 = SECURITY_CLASSIFICATION ( '', '', #11 ) ;
#176 = APPROVAL ( #235, 'UNSPECIFIED' ) ;
#177 = ADVANCED_FACE ( 'NONE', ( #118 ), #191, .F. ) ;
#178 = AXIS2_PLACEMENT_3D ( 'NONE', #65, #26, #170 ) ;
#179 = DATE_AND_TIME ( #148, #70 ) ;
#180 = EDGE_LOOP ( 'NONE', ( #220 ) ) ;
#181 = PERSON_AND_ORGANIZATION_ROLE ( 'design_supplier' ) ;
#182 = APPROVAL_PERSON_ORGANIZATION ( #52, #176, #128 ) ;
#183 = PERSON_AND_ORGANIZATION ( #33, #43 ) ;
#184 = CARTESIAN_POINT ( 'NONE',  ( 1.600000000000132871, 0.0000000000000000000, 37.99999999999999289 ) ) ;
#185 = CYLINDRICAL_SURFACE ( 'NONE', #89, 0.8499999999999998668 ) ;
#186 = EDGE_CURVE ( 'NONE', #17, #17, #6, .T. ) ;
#187 = DESIGN_CONTEXT ( 'detailed design', #18, 'design' ) ;
#188 = PERSON_AND_ORGANIZATION_ROLE ( 'design_owner' ) ;
#189 = CARTESIAN_POINT ( 'NONE',  ( 2.480754550390469482E-14, 0.0000000000000000000, 7.105163423879108819 ) ) ;
#190 = APPLICATION_CONTEXT ( 'configuration controlled 3d designs of mechanical parts and assemblies' ) ;
#191 = PLANE ( 'NONE',  #48 ) ;
#192 = PRODUCT_DEFINITION ( 'UNKNOWN', '', #144, #187 ) ;
#193 = FACE_BOUND ( 'NONE', #15, .T. ) ;
#194 = ADVANCED_BREP_SHAPE_REPRESENTATION ( '334869', ( #142, #56, #174 ), #114 ) ;
#195 = AXIS2_PLACEMENT_3D ( 'NONE', #85, #3, #228 ) ;
#196 = DIRECTION ( 'NONE',  ( 1.000000000000000000, 0.0000000000000000000, -3.491481338843133355E-15 ) ) ;
#197 = DIRECTION ( 'NONE',  ( 3.491481338843133355E-15, -0.0000000000000000000, 1.000000000000000000 ) ) ;
#198 = AXIS2_PLACEMENT_3D ( 'NONE', #207, #209, #210 ) ;
#199 = LOCAL_TIME ( 7, 47, 11.00000000000000000, #201 ) ;
#200 = COORDINATED_UNIVERSAL_TIME_OFFSET ( 1, 0, .AHEAD. ) ;
#201 = COORDINATED_UNIVERSAL_TIME_OFFSET ( 1, 0, .AHEAD. ) ;
#202 = PERSON_AND_ORGANIZATION_ROLE ( 'creator' ) ;
#203 = EDGE_LOOP ( 'NONE', ( #60 ) ) ;
#204 = VERTEX_POINT ( 'NONE', #236 ) ;
#205 = EDGE_LOOP ( 'NONE', ( #13 ) ) ;
#206 = CARTESIAN_POINT ( 'NONE',  ( 0.0000000000000000000, 0.0000000000000000000, 0.0000000000000000000 ) ) ;
#207 = CARTESIAN_POINT ( 'NONE',  ( -4.915890506466203054E-37, 0.0000000000000000000, -1.407967000074253141E-22 ) ) ;
#208 = CONICAL_SURFACE ( 'NONE', #230, 1.600000000000000089, 0.7853981633974512766 ) ;
#209 = DIRECTION ( 'NONE',  ( -3.491481338843133355E-15, 0.0000000000000000000, -1.000000000000000000 ) ) ;
#210 = DIRECTION ( 'NONE',  ( -1.000000000000000000, 0.0000000000000000000, 3.491481338843133355E-15 ) ) ;
#211 = FACE_OUTER_BOUND ( 'NONE', #203, .T. ) ;
#212 = TOROIDAL_SURFACE ( 'NONE', #107, 2.849999999999999645, 2.000000000000000444 ) ;
#213 = ADVANCED_FACE ( 'NONE', ( #115, #74 ), #185, .T. ) ;
#214 = PRODUCT_RELATED_PRODUCT_CATEGORY ( 'detail', '', ( #157 ) ) ;
#215 = AXIS2_PLACEMENT_3D ( 'NONE', #189, #87, #223 ) ;
#216 = APPROVAL_DATE_TIME ( #164, #120 ) ;
#217 = VERTEX_POINT ( 'NONE', #12 ) ;
#218 = CC_DESIGN_PERSON_AND_ORGANIZATION_ASSIGNMENT ( #41, #188, ( #157 ) ) ;
#219 = COORDINATED_UNIVERSAL_TIME_OFFSET ( 1, 0, .AHEAD. ) ;
#220 = ORIENTED_EDGE ( 'NONE', *, *, #105, .F. ) ;
#221 = APPLICATION_PROTOCOL_DEFINITION ( 'international standard', 'config_control_design', 1994, #190 ) ;
#222 = EDGE_LOOP ( 'NONE', ( #84 ) ) ;
#223 = DIRECTION ( 'NONE',  ( 1.000000000000000000, 0.0000000000000000000, -3.469446951953614189E-15 ) ) ;
#224 = SHAPE_DEFINITION_REPRESENTATION ( #123, #194 ) ;
#225 = FACE_OUTER_BOUND ( 'NONE', #96, .T. ) ;
#226 = CLOSED_SHELL ( 'NONE', ( #10, #24, #46, #7, #160, #110 ) ) ;
#227 = FACE_OUTER_BOUND ( 'NONE', #50, .T. ) ;
#228 = DIRECTION ( 'NONE',  ( 1.000000000000000000, 0.0000000000000000000, -3.306400421548193336E-15 ) ) ;
#229 = CARTESIAN_POINT ( 'NONE',  ( 1.312796983405018142E-13, 0.0000000000000000000, 37.60000000000000142 ) ) ;
#230 = AXIS2_PLACEMENT_3D ( 'NONE', #42, #4, #172 ) ;
#231 = LOCAL_TIME ( 7, 47, 11.00000000000000000, #219 ) ;
#232 = CALENDAR_DATE ( 2021, 9, 11 ) ;
#233 = PERSON_AND_ORGANIZATION ( #33, #43 ) ;
#234 = EDGE_LOOP ( 'NONE', ( #237 ) ) ;
#235 = APPROVAL_STATUS ( 'not_yet_approved' ) ;
#236 = CARTESIAN_POINT ( 'NONE',  ( 0.8500000000000085265, 0.0000000000000000000, 2.549999999999995826 ) ) ;
#237 = ORIENTED_EDGE ( 'NONE', *, *, #57, .T. ) ;
#238 = VERTEX_POINT ( 'NONE', #82 ) ;
#239 = CIRCLE ( 'NONE', #94, 2.000000000000000000 ) ;
#240 = APPROVAL_DATE_TIME ( #38, #103 ) ;
#241 = FACE_OUTER_BOUND ( 'NONE', #205, .T. ) ;
#242 = CC_DESIGN_PERSON_AND_ORGANIZATION_ASSIGNMENT ( #183, #202, ( #144 ) ) ;
#243 = FACE_BOUND ( 'NONE', #147, .T. ) ;
ENDSEC;
END-ISO-10303-21;
