ISO-10303-21;
HEADER;
FILE_DESCRIPTION (( 'STEP AP203' ),
    '1' );
FILE_NAME ('334868.step',
    '2021-11-09T06:47:11',
    ( '' ),
    ( '' ),
    'SwSTEP 2.0',
    'SolidWorks 2019',
    '' );
FILE_SCHEMA (( 'CONFIG_CONTROL_DESIGN' ));
ENDSEC;

DATA;
#1 = AXIS2_PLACEMENT_3D ( 'NONE', #31, #137, #103 ) ;
#2 = AXIS2_PLACEMENT_3D ( 'NONE', #44, #96, #224 ) ;
#3 = FACE_OUTER_BOUND ( 'NONE', #182, .T. ) ;
#4 = ORIENTED_EDGE ( 'NONE', *, *, #215, .F. ) ;
#5 = VERTEX_POINT ( 'NONE', #190 ) ;
#6 = APPROVAL_STATUS ( 'not_yet_approved' ) ;
#7 = APPROVAL_STATUS ( 'not_yet_approved' ) ;
#8 = PERSON_AND_ORGANIZATION ( #187, #175 ) ;
#9 = APPROVAL ( #7, 'UNSPECIFIED' ) ;
#10 = VERTEX_POINT ( 'NONE', #114 ) ;
#11 = ADVANCED_FACE ( 'NONE', ( #34 ), #87, .T. ) ;
#12 = ORIENTED_EDGE ( 'NONE', *, *, #172, .F. ) ;
#13 = FACE_OUTER_BOUND ( 'NONE', #52, .T. ) ;
#14 = EDGE_LOOP ( 'NONE', ( #107 ) ) ;
#15 = DIRECTION ( 'NONE',  ( 1.000000000000000000, 0.0000000000000000000, -3.252606517456515274E-15 ) ) ;
#16 = LOCAL_TIME ( 7, 47, 11.00000000000000000, #64 ) ;
#17 = PERSON_AND_ORGANIZATION_ROLE ( 'creator' ) ;
#18 = CARTESIAN_POINT ( 'NONE',  ( 8.379555213223515320E-15, 0.0000000000000000000, 2.399999999999999023 ) ) ;
#19 = CARTESIAN_POINT ( 'NONE',  ( 8.379555213223516897E-15, -5.204170427930419311E-16, 2.399999999999999467 ) ) ;
#20 = EDGE_CURVE ( 'NONE', #115, #115, #56, .T. ) ;
#21 = EDGE_LOOP ( 'NONE', ( #233 ) ) ;
#22 = FACE_OUTER_BOUND ( 'NONE', #90, .T. ) ;
#23 = EDGE_CURVE ( 'NONE', #28, #28, #42, .T. ) ;
#24 = FACE_OUTER_BOUND ( 'NONE', #74, .T. ) ;
#25 = CARTESIAN_POINT ( 'NONE',  ( 0.8000000000000078160, 0.0000000000000000000, 2.399999999999996358 ) ) ;
#26 = CALENDAR_DATE ( 2021, 9, 11 ) ;
#27 = CIRCLE ( 'NONE', #110, 0.7999999999999994893 ) ;
#28 = VERTEX_POINT ( 'NONE', #130 ) ;
#29 = CALENDAR_DATE ( 2021, 9, 11 ) ;
#30 = PERSON_AND_ORGANIZATION_ROLE ( 'classification_officer' ) ;
#31 = CARTESIAN_POINT ( 'NONE',  ( 0.0000000000000000000, 0.0000000000000000000, 0.0000000000000000000 ) ) ;
#32 = SHAPE_DEFINITION_REPRESENTATION ( #165, #53 ) ;
#33 = CARTESIAN_POINT ( 'NONE',  ( -9.831781012932406109E-37, 0.0000000000000000000, -2.815934000148506281E-22 ) ) ;
#34 = FACE_OUTER_BOUND ( 'NONE', #102, .T. ) ;
#35 = ORIENTED_EDGE ( 'NONE', *, *, #240, .F. ) ;
#36 = EDGE_CURVE ( 'NONE', #207, #207, #60, .T. ) ;
#37 = SECURITY_CLASSIFICATION ( '', '', #177 ) ;
#38 = AXIS2_PLACEMENT_3D ( 'NONE', #33, #217, #47 ) ;
#39 = AXIS2_PLACEMENT_3D ( 'NONE', #196, #105, #123 ) ;
#40 = CYLINDRICAL_SURFACE ( 'NONE', #1, 2.000000000000000000 ) ;
#41 = DIRECTION ( 'NONE',  ( 1.000000000000000000, 0.0000000000000000000, -3.469446951953614189E-15 ) ) ;
#42 = CIRCLE ( 'NONE', #160, 2.000000000000000000 ) ;
#43 = LOCAL_TIME ( 7, 47, 11.00000000000000000, #231 ) ;
#44 = CARTESIAN_POINT ( 'NONE',  ( 0.0000000000000000000, 0.0000000000000000000, 0.0000000000000000000 ) ) ;
#45 = CC_DESIGN_PERSON_AND_ORGANIZATION_ASSIGNMENT ( #214, #17, ( #184 ) ) ;
#46 = APPROVAL_ROLE ( '' ) ;
#47 = DIRECTION ( 'NONE',  ( 1.000000000000000000, 0.0000000000000000000, -3.491481338843133750E-15 ) ) ;
#48 = PRODUCT ( '334868', '334868', '', ( #95 ) ) ;
#49 = ORIENTED_EDGE ( 'NONE', *, *, #23, .F. ) ;
#50 = FACE_BOUND ( 'NONE', #197, .T. ) ;
#51 = AXIS2_PLACEMENT_3D ( 'NONE', #212, #80, #94 ) ;
#52 = EDGE_LOOP ( 'NONE', ( #239 ) ) ;
#53 = ADVANCED_BREP_SHAPE_REPRESENTATION ( '334868', ( #65, #226, #2 ), #146 ) ;
#54 = CARTESIAN_POINT ( 'NONE',  ( 8.379555213223516897E-15, -5.204170427930419311E-16, 2.399999999999999467 ) ) ;
#55 = CC_DESIGN_PERSON_AND_ORGANIZATION_ASSIGNMENT ( #238, #30, ( #37 ) ) ;
#56 = CIRCLE ( 'NONE', #183, 0.7999999999999994893 ) ;
#57 = EDGE_LOOP ( 'NONE', ( #4 ) ) ;
#58 = CARTESIAN_POINT ( 'NONE',  ( 8.379555213223516897E-15, 0.0000000000000000000, 2.399999999999999467 ) ) ;
#59 = AXIS2_PLACEMENT_3D ( 'NONE', #143, #203, #125 ) ;
#60 = CIRCLE ( 'NONE', #91, 1.600000000000000089 ) ;
#61 = APPLICATION_PROTOCOL_DEFINITION ( 'international standard', 'config_control_design', 1994, #71 ) ;
#62 = CARTESIAN_POINT ( 'NONE',  ( 0.8000000000000078160, 0.0000000000000000000, 2.399999999999996358 ) ) ;
#63 = LOCAL_TIME ( 7, 47, 11.00000000000000000, #104 ) ;
#64 = COORDINATED_UNIVERSAL_TIME_OFFSET ( 1, 0, .AHEAD. ) ;
#65 = MANIFOLD_SOLID_BREP ( 'Corps-Déplacer/Copier1[1]', #77 ) ;
#66 = PRODUCT_DEFINITION ( 'UNKNOWN', '', #184, #89 ) ;
#67 = DATE_AND_TIME ( #69, #43 ) ;
#68 = FACE_OUTER_BOUND ( 'NONE', #242, .T. ) ;
#69 = CALENDAR_DATE ( 2021, 9, 11 ) ;
#70 = ADVANCED_FACE ( 'NONE', ( #68 ), #180, .T. ) ;
#71 = APPLICATION_CONTEXT ( 'configuration controlled 3d designs of mechanical parts and assemblies' ) ;
#72 = DIRECTION ( 'NONE',  ( 1.000000000000000000, 0.0000000000000000000, -3.491481338843133750E-15 ) ) ;
#73 = APPROVAL_PERSON_ORGANIZATION ( #8, #168, #155 ) ;
#74 = EDGE_LOOP ( 'NONE', ( #85 ) ) ;
#75 = DIRECTION ( 'NONE',  ( -1.000000000000000000, 0.0000000000000000000, 3.491481338843133355E-15 ) ) ;
#76 = DIRECTION ( 'NONE',  ( 3.491481338843133355E-15, -0.0000000000000000000, 1.000000000000000000 ) ) ;
#77 = CLOSED_SHELL ( 'NONE', ( #119, #234, #11, #167, #222, #70 ) ) ;
#78 = CC_DESIGN_PERSON_AND_ORGANIZATION_ASSIGNMENT ( #135, #163, ( #184 ) ) ;
#79 = FACE_OUTER_BOUND ( 'NONE', #57, .T. ) ;
#80 = DIRECTION ( 'NONE',  ( -3.491481338843133355E-15, 0.0000000000000000000, -1.000000000000000000 ) ) ;
#81 = COORDINATED_UNIVERSAL_TIME_OFFSET ( 1, 0, .AHEAD. ) ;
#82 = CC_DESIGN_DATE_AND_TIME_ASSIGNMENT ( #134, #171, ( #66 ) ) ;
#83 = DIRECTION ( 'NONE',  ( 3.491481338843133355E-15, -0.0000000000000000000, 1.000000000000000000 ) ) ;
#84 = CLOSED_SHELL ( 'NONE', ( #185, #189, #159 ) ) ;
#85 = ORIENTED_EDGE ( 'NONE', *, *, #215, .T. ) ;
#86 = EDGE_CURVE ( 'NONE', #209, #209, #210, .T. ) ;
#87 = PLANE ( 'NONE',  #154 ) ;
#88 = CARTESIAN_POINT ( 'NONE',  ( 2.493534259059028859E-14, 0.0000000000000000000, 7.141765964257554167 ) ) ;
#89 = DESIGN_CONTEXT ( 'detailed design', #111, 'design' ) ;
#90 = EDGE_LOOP ( 'NONE', ( #12 ) ) ;
#91 = AXIS2_PLACEMENT_3D ( 'NONE', #237, #138, #216 ) ;
#92 = AXIS2_PLACEMENT_3D ( 'NONE', #58, #148, #221 ) ;
#93 = EDGE_LOOP ( 'NONE', ( #195 ) ) ;
#94 = DIRECTION ( 'NONE',  ( -1.000000000000000000, 0.0000000000000000000, 4.336808689942017736E-15 ) ) ;
#95 = MECHANICAL_CONTEXT ( 'NONE', #71, 'mechanical' ) ;
#96 = DIRECTION ( 'NONE',  ( 0.0000000000000000000, 0.0000000000000000000, 1.000000000000000000 ) ) ;
#97 = PERSON_AND_ORGANIZATION_ROLE ( 'design_owner' ) ;
#98 = DATE_AND_TIME ( #29, #206 ) ;
#99 = CALENDAR_DATE ( 2021, 9, 11 ) ;
#100 = CC_DESIGN_APPROVAL ( #108, ( #37 ) ) ;
#101 = PERSON_AND_ORGANIZATION ( #187, #175 ) ;
#102 = EDGE_LOOP ( 'NONE', ( #201 ) ) ;
#103 = DIRECTION ( 'NONE',  ( 1.000000000000000000, 0.0000000000000000000, -3.491481338843133355E-15 ) ) ;
#104 = COORDINATED_UNIVERSAL_TIME_OFFSET ( 1, 0, .AHEAD. ) ;
#105 = DIRECTION ( 'NONE',  ( 3.491481338843133355E-15, -0.0000000000000000000, 1.000000000000000000 ) ) ;
#106 = DIRECTION ( 'NONE',  ( -3.491481338843133355E-15, 0.0000000000000000000, -1.000000000000000000 ) ) ;
#107 = ORIENTED_EDGE ( 'NONE', *, *, #240, .T. ) ;
#108 = APPROVAL ( #192, 'UNSPECIFIED' ) ;
#109 = CIRCLE ( 'NONE', #38, 0.7999999999999999334 ) ;
#110 = AXIS2_PLACEMENT_3D ( 'NONE', #188, #83, #129 ) ;
#111 = APPLICATION_CONTEXT ( 'configuration controlled 3d designs of mechanical parts and assemblies' ) ;
#112 = DIRECTION ( 'NONE',  ( 3.491481338843133355E-15, -0.0000000000000000000, 1.000000000000000000 ) ) ;
#113 = ORIENTED_EDGE ( 'NONE', *, *, #172, .T. ) ;
#114 = CARTESIAN_POINT ( 'NONE',  ( 0.7999999999999999334, 0.0000000000000000000, -2.793185352667906660E-15 ) ) ;
#115 = VERTEX_POINT ( 'NONE', #25 ) ;
#116 = PERSON_AND_ORGANIZATION ( #187, #175 ) ;
#117 = CARTESIAN_POINT ( 'NONE',  ( 1.600000000000132871, 0.0000000000000000000, 37.99999999999999289 ) ) ;
#118 = DATE_AND_TIME ( #99, #241 ) ;
#119 = ADVANCED_FACE ( 'NONE', ( #22, #153 ), #40, .T. ) ;
#120 = ORIENTED_EDGE ( 'NONE', *, *, #20, .F. ) ;
#121 = AXIS2_PLACEMENT_3D ( 'NONE', #132, #211, #149 ) ;
#122 = APPROVAL_DATE_TIME ( #67, #9 ) ;
#123 = DIRECTION ( 'NONE',  ( 1.000000000000000000, 0.0000000000000000000, -3.469446951953614189E-15 ) ) ;
#124 = DIRECTION ( 'NONE',  ( -1.000000000000000000, 0.0000000000000000000, 3.491481338843133355E-15 ) ) ;
#125 = DIRECTION ( 'NONE',  ( 1.000000000000000000, 0.0000000000000000000, -3.496828729761136367E-15 ) ) ;
#126 = FACE_OUTER_BOUND ( 'NONE', #14, .T. ) ;
#127 = CARTESIAN_POINT ( 'NONE',  ( 0.0000000000000000000, 0.0000000000000000000, 0.0000000000000000000 ) ) ;
#128 = APPROVAL_PERSON_ORGANIZATION ( #213, #9, #46 ) ;
#129 = DIRECTION ( 'NONE',  ( 1.000000000000000000, 0.0000000000000000000, -3.252606517456515274E-15 ) ) ;
#130 = CARTESIAN_POINT ( 'NONE',  ( 2.000000000000024869, 0.0000000000000000000, 7.141765964257547950 ) ) ;
#131 =( NAMED_UNIT ( * ) PLANE_ANGLE_UNIT ( ) SI_UNIT ( $, .RADIAN. ) );
#132 = CARTESIAN_POINT ( 'NONE',  ( -4.915890506466203054E-37, 0.0000000000000000000, -1.407967000074253141E-22 ) ) ;
#133 = CONICAL_SURFACE ( 'NONE', #51, 1.600000000000000089, 0.7853981633974512766 ) ;
#134 = DATE_AND_TIME ( #26, #16 ) ;
#135 = PERSON_AND_ORGANIZATION ( #187, #175 ) ;
#136 = CC_DESIGN_DATE_AND_TIME_ASSIGNMENT ( #194, #139, ( #37 ) ) ;
#137 = DIRECTION ( 'NONE',  ( 3.491481338843133355E-15, -0.0000000000000000000, 1.000000000000000000 ) ) ;
#138 = DIRECTION ( 'NONE',  ( 3.491481338843133355E-15, -0.0000000000000000000, 1.000000000000000000 ) ) ;
#139 = DATE_TIME_ROLE ( 'classification_date' ) ;
#140 = EDGE_LOOP ( 'NONE', ( #49 ) ) ;
#141 = DIRECTION ( 'NONE',  ( 1.000000000000000000, 0.0000000000000000000, -3.469446951953614189E-15 ) ) ;
#142 = PLANE ( 'NONE',  #121 ) ;
#143 = CARTESIAN_POINT ( 'NONE',  ( 1.018687894544877486E-14, 0.0000000000000000000, 2.917638090205028067 ) ) ;
#144 = CALENDAR_DATE ( 2021, 9, 11 ) ;
#145 = AXIS2_PLACEMENT_3D ( 'NONE', #127, #112, #72 ) ;
#146 =( GEOMETRIC_REPRESENTATION_CONTEXT ( 3 ) GLOBAL_UNCERTAINTY_ASSIGNED_CONTEXT ( ( #219 ) ) GLOBAL_UNIT_ASSIGNED_CONTEXT ( ( #157, #131, #186 ) ) REPRESENTATION_CONTEXT ( 'NONE', 'WORKASPACE' ) );
#147 = ORIENTED_EDGE ( 'NONE', *, *, #86, .F. ) ;
#148 = DIRECTION ( 'NONE',  ( 3.491481338843133355E-15, -0.0000000000000000000, 1.000000000000000000 ) ) ;
#149 = DIRECTION ( 'NONE',  ( -1.000000000000000000, 0.0000000000000000000, 3.491481338843133355E-15 ) ) ;
#150 = CC_DESIGN_APPROVAL ( #168, ( #66 ) ) ;
#151 = DIRECTION ( 'NONE',  ( -3.491481338843133355E-15, 0.0000000000000000000, -1.000000000000000000 ) ) ;
#152 = CYLINDRICAL_SURFACE ( 'NONE', #145, 0.7999999999999997113 ) ;
#153 = FACE_OUTER_BOUND ( 'NONE', #93, .T. ) ;
#154 = AXIS2_PLACEMENT_3D ( 'NONE', #161, #236, #220 ) ;
#155 = APPROVAL_ROLE ( '' ) ;
#156 = APPROVAL_DATE_TIME ( #98, #168 ) ;
#157 =( LENGTH_UNIT ( ) NAMED_UNIT ( * ) SI_UNIT ( .MILLI., .METRE. ) );
#158 = PRODUCT_RELATED_PRODUCT_CATEGORY ( 'detail', '', ( #48 ) ) ;
#159 = ADVANCED_FACE ( 'NONE', ( #13 ), #181, .F. ) ;
#160 = AXIS2_PLACEMENT_3D ( 'NONE', #88, #162, #141 ) ;
#161 = CARTESIAN_POINT ( 'NONE',  ( 1.326762908760390423E-13, 0.0000000000000000000, 38.00000000000000000 ) ) ;
#162 = DIRECTION ( 'NONE',  ( 3.491481338843133355E-15, -0.0000000000000000000, 1.000000000000000000 ) ) ;
#163 = PERSON_AND_ORGANIZATION_ROLE ( 'design_supplier' ) ;
#164 = FACE_OUTER_BOUND ( 'NONE', #191, .T. ) ;
#165 = PRODUCT_DEFINITION_SHAPE ( 'NONE', 'NONE',  #66 ) ;
#166 = CARTESIAN_POINT ( 'NONE',  ( 1.312796983405018142E-13, 0.0000000000000000000, 37.60000000000000142 ) ) ;
#167 = ADVANCED_FACE ( 'NONE', ( #126, #243 ), #205, .F. ) ;
#168 = APPROVAL ( #6, 'UNSPECIFIED' ) ;
#169 = AXIS2_PLACEMENT_3D ( 'NONE', #19, #151, #75 ) ;
#170 = CARTESIAN_POINT ( 'NONE',  ( 0.8681483474218701923, 0.0000000000000000000, 2.917638090205024959 ) ) ;
#171 = DATE_TIME_ROLE ( 'creation_date' ) ;
#172 = EDGE_CURVE ( 'NONE', #5, #5, #228, .T. ) ;
#173 = APPLICATION_PROTOCOL_DEFINITION ( 'international standard', 'config_control_design', 1994, #111 ) ;
#174 = FACE_BOUND ( 'NONE', #21, .T. ) ;
#175 = ORGANIZATION ( 'UNSPECIFIED', 'UNSPECIFIED', '' ) ;
#176 = CC_DESIGN_PERSON_AND_ORGANIZATION_ASSIGNMENT ( #116, #97, ( #48 ) ) ;
#177 = SECURITY_CLASSIFICATION_LEVEL ( 'unclassified' ) ;
#178 = AXIS2_PLACEMENT_3D ( 'NONE', #54, #106, #124 ) ;
#179 = CC_DESIGN_SECURITY_CLASSIFICATION ( #37, ( #184 ) ) ;
#180 = PLANE ( 'NONE',  #178 ) ;
#181 = PLANE ( 'NONE',  #169 ) ;
#182 = EDGE_LOOP ( 'NONE', ( #120 ) ) ;
#183 = AXIS2_PLACEMENT_3D ( 'NONE', #18, #76, #15 ) ;
#184 = PRODUCT_DEFINITION_FORMATION_WITH_SPECIFIED_SOURCE ( 'ANY', '', #48, .NOT_KNOWN. ) ;
#185 = ADVANCED_FACE ( 'NONE', ( #79 ), #142, .T. ) ;
#186 =( NAMED_UNIT ( * ) SI_UNIT ( $, .STERADIAN. ) SOLID_ANGLE_UNIT ( ) );
#187 = PERSON ( 'UNSPECIFIED', 'UNSPECIFIED', 'UNSPECIFIED', ('UNSPECIFIED'), ('UNSPECIFIED'), ('UNSPECIFIED') ) ;
#188 = CARTESIAN_POINT ( 'NONE',  ( 8.379555213223515320E-15, 0.0000000000000000000, 2.399999999999999023 ) ) ;
#189 = ADVANCED_FACE ( 'NONE', ( #24, #3 ), #152, .T. ) ;
#190 = CARTESIAN_POINT ( 'NONE',  ( 2.000000000000131450, 0.0000000000000000000, 37.59999999999999432 ) ) ;
#191 = EDGE_LOOP ( 'NONE', ( #113 ) ) ;
#192 = APPROVAL_STATUS ( 'not_yet_approved' ) ;
#193 = FACE_OUTER_BOUND ( 'NONE', #140, .T. ) ;
#194 = DATE_AND_TIME ( #144, #63 ) ;
#195 = ORIENTED_EDGE ( 'NONE', *, *, #23, .T. ) ;
#196 = CARTESIAN_POINT ( 'NONE',  ( 2.493534259059028859E-14, 0.0000000000000000000, 7.141765964257554167 ) ) ;
#197 = EDGE_LOOP ( 'NONE', ( #204 ) ) ;
#198 = APPROVAL_DATE_TIME ( #118, #108 ) ;
#199 = APPROVAL_PERSON_ORGANIZATION ( #101, #108, #232 ) ;
#200 = EDGE_LOOP ( 'NONE', ( #147 ) ) ;
#201 = ORIENTED_EDGE ( 'NONE', *, *, #36, .T. ) ;
#202 = CC_DESIGN_PERSON_AND_ORGANIZATION_ASSIGNMENT ( #230, #208, ( #66 ) ) ;
#203 = DIRECTION ( 'NONE',  ( 3.491481338843133355E-15, -0.0000000000000000000, 1.000000000000000000 ) ) ;
#204 = ORIENTED_EDGE ( 'NONE', *, *, #86, .T. ) ;
#205 = TOROIDAL_SURFACE ( 'NONE', #92, 2.799999999999999822, 2.000000000000000000 ) ;
#206 = LOCAL_TIME ( 7, 47, 11.00000000000000000, #81 ) ;
#207 = VERTEX_POINT ( 'NONE', #117 ) ;
#208 = PERSON_AND_ORGANIZATION_ROLE ( 'creator' ) ;
#209 = VERTEX_POINT ( 'NONE', #170 ) ;
#210 = CIRCLE ( 'NONE', #59, 0.8681483474218599783 ) ;
#211 = DIRECTION ( 'NONE',  ( -3.491481338843133355E-15, 0.0000000000000000000, -1.000000000000000000 ) ) ;
#212 = CARTESIAN_POINT ( 'NONE',  ( 1.326762908760390423E-13, 0.0000000000000000000, 38.00000000000000000 ) ) ;
#213 = PERSON_AND_ORGANIZATION ( #187, #175 ) ;
#214 = PERSON_AND_ORGANIZATION ( #187, #175 ) ;
#215 = EDGE_CURVE ( 'NONE', #10, #10, #109, .T. ) ;
#216 = DIRECTION ( 'NONE',  ( 1.000000000000000000, 0.0000000000000000000, -4.336808689942017736E-15 ) ) ;
#217 = DIRECTION ( 'NONE',  ( 3.491481338843133355E-15, -0.0000000000000000000, 1.000000000000000000 ) ) ;
#218 = COORDINATED_UNIVERSAL_TIME_OFFSET ( 1, 0, .AHEAD. ) ;
#219 = UNCERTAINTY_MEASURE_WITH_UNIT (LENGTH_MEASURE( 1.000000000000000082E-05 ), #157, 'distance_accuracy_value', 'NONE');
#220 = DIRECTION ( 'NONE',  ( 1.000000000000000000, 0.0000000000000000000, -3.491481338843133355E-15 ) ) ;
#221 = DIRECTION ( 'NONE',  ( 1.000000000000000000, 0.0000000000000000000, -3.491481338843133355E-15 ) ) ;
#222 = ADVANCED_FACE ( 'NONE', ( #50, #193 ), #223, .T. ) ;
#223 = CONICAL_SURFACE ( 'NONE', #39, 2.000000000000000000, 0.2617993877991429130 ) ;
#224 = DIRECTION ( 'NONE',  ( 1.000000000000000000, 0.0000000000000000000, 0.0000000000000000000 ) ) ;
#225 = AXIS2_PLACEMENT_3D ( 'NONE', #166, #229, #41 ) ;
#226 = MANIFOLD_SOLID_BREP ( 'Corps-Déplacer/Copier1[2]', #84 ) ;
#227 = VERTEX_POINT ( 'NONE', #62 ) ;
#228 = CIRCLE ( 'NONE', #225, 2.000000000000000000 ) ;
#229 = DIRECTION ( 'NONE',  ( 3.491481338843133355E-15, -0.0000000000000000000, 1.000000000000000000 ) ) ;
#230 = PERSON_AND_ORGANIZATION ( #187, #175 ) ;
#231 = COORDINATED_UNIVERSAL_TIME_OFFSET ( 1, 0, .AHEAD. ) ;
#232 = APPROVAL_ROLE ( '' ) ;
#233 = ORIENTED_EDGE ( 'NONE', *, *, #36, .F. ) ;
#234 = ADVANCED_FACE ( 'NONE', ( #164, #174 ), #133, .T. ) ;
#235 = CC_DESIGN_APPROVAL ( #9, ( #184 ) ) ;
#236 = DIRECTION ( 'NONE',  ( 3.491481338843133355E-15, -0.0000000000000000000, 1.000000000000000000 ) ) ;
#237 = CARTESIAN_POINT ( 'NONE',  ( 1.326762908760390423E-13, 0.0000000000000000000, 38.00000000000000000 ) ) ;
#238 = PERSON_AND_ORGANIZATION ( #187, #175 ) ;
#239 = ORIENTED_EDGE ( 'NONE', *, *, #20, .T. ) ;
#240 = EDGE_CURVE ( 'NONE', #227, #227, #27, .T. ) ;
#241 = LOCAL_TIME ( 7, 47, 11.00000000000000000, #218 ) ;
#242 = EDGE_LOOP ( 'NONE', ( #35 ) ) ;
#243 = FACE_OUTER_BOUND ( 'NONE', #200, .T. ) ;
ENDSEC;
END-ISO-10303-21;
