ISO-10303-21;
HEADER;
FILE_DESCRIPTION (( 'STEP AP203' ),
    '1' );
FILE_NAME ('334867.step',
    '2021-11-09T06:47:10',
    ( '' ),
    ( '' ),
    'SwSTEP 2.0',
    'SolidWorks 2019',
    '' );
FILE_SCHEMA (( 'CONFIG_CONTROL_DESIGN' ));
ENDSEC;

DATA;
#1 = AXIS2_PLACEMENT_3D ( 'NONE', #70, #138, #217 ) ;
#2 = DIRECTION ( 'NONE',  ( 3.491481338843133355E-15, -0.0000000000000000000, 1.000000000000000000 ) ) ;
#3 = ORIENTED_EDGE ( 'NONE', *, *, #133, .T. ) ;
#4 = LOCAL_TIME ( 7, 47, 10.00000000000000000, #226 ) ;
#5 = APPROVAL ( #203, 'UNSPECIFIED' ) ;
#6 = DIRECTION ( 'NONE',  ( -1.000000000000000000, 0.0000000000000000000, 3.491481338843133355E-15 ) ) ;
#7 = ORIENTED_EDGE ( 'NONE', *, *, #93, .F. ) ;
#8 = ORIENTED_EDGE ( 'NONE', *, *, #191, .F. ) ;
#9 = CARTESIAN_POINT ( 'NONE',  ( 1.600000000000132871, 0.0000000000000000000, 37.99999999999999289 ) ) ;
#10 = EDGE_LOOP ( 'NONE', ( #7 ) ) ;
#11 = DIRECTION ( 'NONE',  ( 3.491481338843133355E-15, -0.0000000000000000000, 1.000000000000000000 ) ) ;
#12 = DIRECTION ( 'NONE',  ( 3.491481338843133355E-15, -0.0000000000000000000, 1.000000000000000000 ) ) ;
#13 = CARTESIAN_POINT ( 'NONE',  ( 7.855833012397048472E-15, -4.878909776184766995E-16, 2.249999999999999556 ) ) ;
#14 = APPLICATION_CONTEXT ( 'configuration controlled 3d designs of mechanical parts and assemblies' ) ;
#15 = CALENDAR_DATE ( 2021, 9, 11 ) ;
#16 = EDGE_LOOP ( 'NONE', ( #159 ) ) ;
#17 = DATE_AND_TIME ( #15, #164 ) ;
#18 = CARTESIAN_POINT ( 'NONE',  ( 1.326762908760390423E-13, 0.0000000000000000000, 38.00000000000000000 ) ) ;
#19 = AXIS2_PLACEMENT_3D ( 'NONE', #237, #12, #102 ) ;
#20 = COORDINATED_UNIVERSAL_TIME_OFFSET ( 1, 0, .AHEAD. ) ;
#21 = COORDINATED_UNIVERSAL_TIME_OFFSET ( 1, 0, .AHEAD. ) ;
#22 = ORIENTED_EDGE ( 'NONE', *, *, #66, .F. ) ;
#23 = DIRECTION ( 'NONE',  ( 1.000000000000000000, 0.0000000000000000000, -3.491481338843133355E-15 ) ) ;
#24 = LOCAL_TIME ( 7, 47, 10.00000000000000000, #21 ) ;
#25 = ADVANCED_BREP_SHAPE_REPRESENTATION ( '334867', ( #50, #209, #49 ), #238 ) ;
#26 = DIRECTION ( 'NONE',  ( -1.000000000000000000, 0.0000000000000000000, 3.491481338843133355E-15 ) ) ;
#27 = FACE_OUTER_BOUND ( 'NONE', #222, .T. ) ;
#28 = CARTESIAN_POINT ( 'NONE',  ( 0.7500000000000002220, 0.0000000000000000000, -2.618611285725750781E-15 ) ) ;
#29 = DIRECTION ( 'NONE',  ( 0.0000000000000000000, 0.0000000000000000000, 1.000000000000000000 ) ) ;
#30 = PLANE ( 'NONE',  #144 ) ;
#31 = AXIS2_PLACEMENT_3D ( 'NONE', #18, #165, #73 ) ;
#32 = LOCAL_TIME ( 7, 47, 10.00000000000000000, #20 ) ;
#33 = DIRECTION ( 'NONE',  ( 1.000000000000000000, 0.0000000000000000000, -3.469446951953614189E-15 ) ) ;
#34 = ORIENTED_EDGE ( 'NONE', *, *, #181, .T. ) ;
#35 = CALENDAR_DATE ( 2021, 9, 11 ) ;
#36 = PERSON_AND_ORGANIZATION ( #168, #59 ) ;
#37 = ADVANCED_FACE ( 'NONE', ( #27, #101 ), #136, .T. ) ;
#38 = DATE_TIME_ROLE ( 'creation_date' ) ;
#39 = CIRCLE ( 'NONE', #96, 0.7499999999999997780 ) ;
#40 = ORIENTED_EDGE ( 'NONE', *, *, #173, .T. ) ;
#41 = DIRECTION ( 'NONE',  ( -1.000000000000000000, 0.0000000000000000000, 4.336808689942017736E-15 ) ) ;
#42 = AXIS2_PLACEMENT_3D ( 'NONE', #243, #58, #41 ) ;
#43 = CC_DESIGN_PERSON_AND_ORGANIZATION_ASSIGNMENT ( #163, #129, ( #116 ) ) ;
#44 = DIRECTION ( 'NONE',  ( -3.491481338843133355E-15, 0.0000000000000000000, -1.000000000000000000 ) ) ;
#45 = PRODUCT ( '334867', '334867', '', ( #183 ) ) ;
#46 = PRODUCT_RELATED_PRODUCT_CATEGORY ( 'detail', '', ( #45 ) ) ;
#47 = EDGE_LOOP ( 'NONE', ( #199 ) ) ;
#48 = DIRECTION ( 'NONE',  ( -1.000000000000000000, 0.0000000000000000000, 3.491481338843133355E-15 ) ) ;
#49 = AXIS2_PLACEMENT_3D ( 'NONE', #118, #29, #107 ) ;
#50 = MANIFOLD_SOLID_BREP ( 'Corps-Déplacer/Copier1[1]', #57 ) ;
#51 = ORIENTED_EDGE ( 'NONE', *, *, #133, .F. ) ;
#52 = PERSON_AND_ORGANIZATION ( #168, #59 ) ;
#53 = FACE_OUTER_BOUND ( 'NONE', #100, .T. ) ;
#54 = ADVANCED_FACE ( 'NONE', ( #180, #160 ), #240, .T. ) ;
#55 = AXIS2_PLACEMENT_3D ( 'NONE', #114, #132, #211 ) ;
#56 = VERTEX_POINT ( 'NONE', #139 ) ;
#57 = CLOSED_SHELL ( 'NONE', ( #37, #88, #126, #64, #216, #236 ) ) ;
#58 = DIRECTION ( 'NONE',  ( -3.491481338843133355E-15, 0.0000000000000000000, -1.000000000000000000 ) ) ;
#59 = ORGANIZATION ( 'UNSPECIFIED', 'UNSPECIFIED', '' ) ;
#60 = SECURITY_CLASSIFICATION_LEVEL ( 'unclassified' ) ;
#61 = CIRCLE ( 'NONE', #55, 0.7499999999999997780 ) ;
#62 = APPROVAL_PERSON_ORGANIZATION ( #94, #193, #166 ) ;
#63 = CC_DESIGN_DATE_AND_TIME_ASSIGNMENT ( #17, #110, ( #186 ) ) ;
#64 = ADVANCED_FACE ( 'NONE', ( #122, #105 ), #149, .F. ) ;
#65 = DIRECTION ( 'NONE',  ( 3.491481338843133355E-15, -0.0000000000000000000, 1.000000000000000000 ) ) ;
#66 = EDGE_CURVE ( 'NONE', #134, #134, #95, .T. ) ;
#67 =( NAMED_UNIT ( * ) PLANE_ANGLE_UNIT ( ) SI_UNIT ( $, .RADIAN. ) );
#68 = CIRCLE ( 'NONE', #19, 0.8181483474218598229 ) ;
#69 = VERTEX_POINT ( 'NONE', #137 ) ;
#70 = CARTESIAN_POINT ( 'NONE',  ( 0.0000000000000000000, 0.0000000000000000000, 0.0000000000000000000 ) ) ;
#71 = CARTESIAN_POINT ( 'NONE',  ( 2.000000000000131450, 0.0000000000000000000, 37.59999999999999432 ) ) ;
#72 = FACE_OUTER_BOUND ( 'NONE', #10, .T. ) ;
#73 = DIRECTION ( 'NONE',  ( 1.000000000000000000, 0.0000000000000000000, -4.336808689942017736E-15 ) ) ;
#74 = ORIENTED_EDGE ( 'NONE', *, *, #198, .T. ) ;
#75 = EDGE_LOOP ( 'NONE', ( #51 ) ) ;
#76 = APPROVAL_DATE_TIME ( #150, #225 ) ;
#77 = CIRCLE ( 'NONE', #156, 2.000000000000000000 ) ;
#78 = CC_DESIGN_DATE_AND_TIME_ASSIGNMENT ( #228, #38, ( #206 ) ) ;
#79 = COORDINATED_UNIVERSAL_TIME_OFFSET ( 1, 0, .AHEAD. ) ;
#80 = DIRECTION ( 'NONE',  ( 3.491481338843133355E-15, -0.0000000000000000000, 1.000000000000000000 ) ) ;
#81 = CC_DESIGN_PERSON_AND_ORGANIZATION_ASSIGNMENT ( #52, #104, ( #45 ) ) ;
#82 = APPLICATION_PROTOCOL_DEFINITION ( 'international standard', 'config_control_design', 1994, #192 ) ;
#83 = FACE_OUTER_BOUND ( 'NONE', #86, .T. ) ;
#84 = ORIENTED_EDGE ( 'NONE', *, *, #181, .F. ) ;
#85 = CARTESIAN_POINT ( 'NONE',  ( 0.7500000000000075495, 0.0000000000000000000, 2.249999999999996447 ) ) ;
#86 = EDGE_LOOP ( 'NONE', ( #3 ) ) ;
#87 = CARTESIAN_POINT ( 'NONE',  ( 0.0000000000000000000, 0.0000000000000000000, 0.0000000000000000000 ) ) ;
#88 = ADVANCED_FACE ( 'NONE', ( #146, #224 ), #155, .T. ) ;
#89 = VERTEX_POINT ( 'NONE', #71 ) ;
#90 = CONICAL_SURFACE ( 'NONE', #135, 2.000000000000000000, 0.2617993877991429130 ) ;
#91 = PERSON_AND_ORGANIZATION ( #168, #59 ) ;
#92 = APPROVAL_STATUS ( 'not_yet_approved' ) ;
#93 = EDGE_CURVE ( 'NONE', #241, #241, #179, .T. ) ;
#94 = PERSON_AND_ORGANIZATION ( #168, #59 ) ;
#95 = CIRCLE ( 'NONE', #31, 1.600000000000000089 ) ;
#96 = AXIS2_PLACEMENT_3D ( 'NONE', #162, #121, #220 ) ;
#97 = AXIS2_PLACEMENT_3D ( 'NONE', #151, #130, #185 ) ;
#98 = LOCAL_TIME ( 7, 47, 10.00000000000000000, #153 ) ;
#99 = FACE_BOUND ( 'NONE', #16, .T. ) ;
#100 = EDGE_LOOP ( 'NONE', ( #84 ) ) ;
#101 = FACE_OUTER_BOUND ( 'NONE', #140, .T. ) ;
#102 = DIRECTION ( 'NONE',  ( 1.000000000000000000, 0.0000000000000000000, -3.710532561149436110E-15 ) ) ;
#103 = DIRECTION ( 'NONE',  ( 1.000000000000000000, 0.0000000000000000000, -3.469446951953614189E-15 ) ) ;
#104 = PERSON_AND_ORGANIZATION_ROLE ( 'design_owner' ) ;
#105 = FACE_OUTER_BOUND ( 'NONE', #235, .T. ) ;
#106 = CARTESIAN_POINT ( 'NONE',  ( 2.506313967727589813E-14, 0.0000000000000000000, 7.178368504636003955 ) ) ;
#107 = DIRECTION ( 'NONE',  ( 1.000000000000000000, 0.0000000000000000000, 0.0000000000000000000 ) ) ;
#108 = APPROVAL_DATE_TIME ( #124, #5 ) ;
#109 = CC_DESIGN_APPROVAL ( #193, ( #186 ) ) ;
#110 = DATE_TIME_ROLE ( 'classification_date' ) ;
#111 = DATE_AND_TIME ( #188, #98 ) ;
#112 = APPROVAL_ROLE ( '' ) ;
#113 = PERSON_AND_ORGANIZATION ( #168, #59 ) ;
#114 = CARTESIAN_POINT ( 'NONE',  ( 7.855833012397046894E-15, 0.0000000000000000000, 2.249999999999999112 ) ) ;
#115 = ORIENTED_EDGE ( 'NONE', *, *, #93, .T. ) ;
#116 = PRODUCT_DEFINITION_FORMATION_WITH_SPECIFIED_SOURCE ( 'ANY', '', #45, .NOT_KNOWN. ) ;
#117 = EDGE_LOOP ( 'NONE', ( #154 ) ) ;
#118 = CARTESIAN_POINT ( 'NONE',  ( 0.0000000000000000000, 0.0000000000000000000, 0.0000000000000000000 ) ) ;
#119 = FACE_OUTER_BOUND ( 'NONE', #117, .T. ) ;
#120 = PLANE ( 'NONE',  #174 ) ;
#121 = DIRECTION ( 'NONE',  ( 3.491481338843133355E-15, -0.0000000000000000000, 1.000000000000000000 ) ) ;
#122 = FACE_OUTER_BOUND ( 'NONE', #239, .T. ) ;
#123 = CALENDAR_DATE ( 2021, 9, 11 ) ;
#124 = DATE_AND_TIME ( #35, #24 ) ;
#125 = APPROVAL_PERSON_ORGANIZATION ( #157, #225, #112 ) ;
#126 = ADVANCED_FACE ( 'NONE', ( #131 ), #148, .T. ) ;
#127 = UNCERTAINTY_MEASURE_WITH_UNIT (LENGTH_MEASURE( 1.000000000000000082E-05 ), #218, 'distance_accuracy_value', 'NONE');
#128 = EDGE_LOOP ( 'NONE', ( #115 ) ) ;
#129 = PERSON_AND_ORGANIZATION_ROLE ( 'creator' ) ;
#130 = DIRECTION ( 'NONE',  ( 3.491481338843133355E-15, -0.0000000000000000000, 1.000000000000000000 ) ) ;
#131 = FACE_OUTER_BOUND ( 'NONE', #47, .T. ) ;
#132 = DIRECTION ( 'NONE',  ( 3.491481338843133355E-15, -0.0000000000000000000, 1.000000000000000000 ) ) ;
#133 = EDGE_CURVE ( 'NONE', #69, #69, #61, .T. ) ;
#134 = VERTEX_POINT ( 'NONE', #9 ) ;
#135 = AXIS2_PLACEMENT_3D ( 'NONE', #161, #176, #143 ) ;
#136 = CYLINDRICAL_SURFACE ( 'NONE', #227, 2.000000000000000000 ) ;
#137 = CARTESIAN_POINT ( 'NONE',  ( 0.7500000000000075495, 0.0000000000000000000, 2.249999999999996447 ) ) ;
#138 = DIRECTION ( 'NONE',  ( 3.491481338843133355E-15, -0.0000000000000000000, 1.000000000000000000 ) ) ;
#139 = CARTESIAN_POINT ( 'NONE',  ( 0.8181483474218694818, 0.0000000000000000000, 2.767638090205025048 ) ) ;
#140 = EDGE_LOOP ( 'NONE', ( #74 ) ) ;
#141 = DIRECTION ( 'NONE',  ( 1.000000000000000000, 0.0000000000000000000, -3.491481338843133355E-15 ) ) ;
#142 = DIRECTION ( 'NONE',  ( 1.000000000000000000, 0.0000000000000000000, -3.491481338843133355E-15 ) ) ;
#143 = DIRECTION ( 'NONE',  ( 1.000000000000000000, 0.0000000000000000000, -3.469446951953614189E-15 ) ) ;
#144 = AXIS2_PLACEMENT_3D ( 'NONE', #219, #44, #48 ) ;
#145 = CC_DESIGN_APPROVAL ( #5, ( #116 ) ) ;
#146 = FACE_OUTER_BOUND ( 'NONE', #207, .T. ) ;
#147 = PERSON_AND_ORGANIZATION_ROLE ( 'creator' ) ;
#148 = PLANE ( 'NONE',  #232 ) ;
#149 = TOROIDAL_SURFACE ( 'NONE', #97, 2.750000000000000444, 2.000000000000000444 ) ;
#150 = DATE_AND_TIME ( #223, #4 ) ;
#151 = CARTESIAN_POINT ( 'NONE',  ( 7.855833012397048472E-15, 0.0000000000000000000, 2.249999999999999556 ) ) ;
#152 = CARTESIAN_POINT ( 'NONE',  ( 1.326762908760390423E-13, 0.0000000000000000000, 38.00000000000000000 ) ) ;
#153 = COORDINATED_UNIVERSAL_TIME_OFFSET ( 1, 0, .AHEAD. ) ;
#154 = ORIENTED_EDGE ( 'NONE', *, *, #198, .F. ) ;
#155 = CONICAL_SURFACE ( 'NONE', #42, 1.600000000000000089, 0.7853981633974512766 ) ;
#156 = AXIS2_PLACEMENT_3D ( 'NONE', #106, #65, #33 ) ;
#157 = PERSON_AND_ORGANIZATION ( #168, #59 ) ;
#158 = VERTEX_POINT ( 'NONE', #85 ) ;
#159 = ORIENTED_EDGE ( 'NONE', *, *, #191, .T. ) ;
#160 = FACE_OUTER_BOUND ( 'NONE', #75, .T. ) ;
#161 = CARTESIAN_POINT ( 'NONE',  ( 2.506313967727589813E-14, 0.0000000000000000000, 7.178368504636003955 ) ) ;
#162 = CARTESIAN_POINT ( 'NONE',  ( 7.855833012397046894E-15, 0.0000000000000000000, 2.249999999999999112 ) ) ;
#163 = PERSON_AND_ORGANIZATION ( #168, #59 ) ;
#164 = LOCAL_TIME ( 7, 47, 10.00000000000000000, #79 ) ;
#165 = DIRECTION ( 'NONE',  ( 3.491481338843133355E-15, -0.0000000000000000000, 1.000000000000000000 ) ) ;
#166 = APPROVAL_ROLE ( '' ) ;
#167 = ADVANCED_FACE ( 'NONE', ( #72 ), #30, .T. ) ;
#168 = PERSON ( 'UNSPECIFIED', 'UNSPECIFIED', 'UNSPECIFIED', ('UNSPECIFIED'), ('UNSPECIFIED'), ('UNSPECIFIED') ) ;
#169 = AXIS2_PLACEMENT_3D ( 'NONE', #233, #80, #142 ) ;
#170 = APPROVAL_PERSON_ORGANIZATION ( #230, #5, #189 ) ;
#171 = SHAPE_DEFINITION_REPRESENTATION ( #212, #25 ) ;
#172 = CC_DESIGN_SECURITY_CLASSIFICATION ( #186, ( #116 ) ) ;
#173 = EDGE_CURVE ( 'NONE', #89, #89, #190, .T. ) ;
#174 = AXIS2_PLACEMENT_3D ( 'NONE', #196, #202, #6 ) ;
#175 = CC_DESIGN_PERSON_AND_ORGANIZATION_ASSIGNMENT ( #36, #147, ( #206 ) ) ;
#176 = DIRECTION ( 'NONE',  ( 3.491481338843133355E-15, -0.0000000000000000000, 1.000000000000000000 ) ) ;
#177 = CC_DESIGN_PERSON_AND_ORGANIZATION_ASSIGNMENT ( #113, #205, ( #116 ) ) ;
#178 = APPLICATION_PROTOCOL_DEFINITION ( 'international standard', 'config_control_design', 1994, #14 ) ;
#179 = CIRCLE ( 'NONE', #169, 0.7500000000000002220 ) ;
#180 = FACE_OUTER_BOUND ( 'NONE', #128, .T. ) ;
#181 = EDGE_CURVE ( 'NONE', #158, #158, #39, .T. ) ;
#182 = VERTEX_POINT ( 'NONE', #214 ) ;
#183 = MECHANICAL_CONTEXT ( 'NONE', #192, 'mechanical' ) ;
#184 = APPROVAL_DATE_TIME ( #111, #193 ) ;
#185 = DIRECTION ( 'NONE',  ( 1.000000000000000000, 0.0000000000000000000, -3.491481338843132961E-15 ) ) ;
#186 = SECURITY_CLASSIFICATION ( '', '', #60 ) ;
#187 = APPROVAL_STATUS ( 'not_yet_approved' ) ;
#188 = CALENDAR_DATE ( 2021, 9, 11 ) ;
#189 = APPROVAL_ROLE ( '' ) ;
#190 = CIRCLE ( 'NONE', #221, 2.000000000000000000 ) ;
#191 = EDGE_CURVE ( 'NONE', #56, #56, #68, .T. ) ;
#192 = APPLICATION_CONTEXT ( 'configuration controlled 3d designs of mechanical parts and assemblies' ) ;
#193 = APPROVAL ( #92, 'UNSPECIFIED' ) ;
#194 = CARTESIAN_POINT ( 'NONE',  ( 1.312796983405018142E-13, 0.0000000000000000000, 37.60000000000000142 ) ) ;
#195 = ORIENTED_EDGE ( 'NONE', *, *, #173, .F. ) ;
#196 = CARTESIAN_POINT ( 'NONE',  ( 7.855833012397048472E-15, -4.878909776184766995E-16, 2.249999999999999556 ) ) ;
#197 = DIRECTION ( 'NONE',  ( 3.491481338843133355E-15, -0.0000000000000000000, 1.000000000000000000 ) ) ;
#198 = EDGE_CURVE ( 'NONE', #182, #182, #77, .T. ) ;
#199 = ORIENTED_EDGE ( 'NONE', *, *, #66, .T. ) ;
#200 = DIRECTION ( 'NONE',  ( -3.491481338843133355E-15, 0.0000000000000000000, -1.000000000000000000 ) ) ;
#201 = EDGE_LOOP ( 'NONE', ( #22 ) ) ;
#202 = DIRECTION ( 'NONE',  ( -3.491481338843133355E-15, 0.0000000000000000000, -1.000000000000000000 ) ) ;
#203 = APPROVAL_STATUS ( 'not_yet_approved' ) ;
#204 = DESIGN_CONTEXT ( 'detailed design', #14, 'design' ) ;
#205 = PERSON_AND_ORGANIZATION_ROLE ( 'design_supplier' ) ;
#206 = PRODUCT_DEFINITION ( 'UNKNOWN', '', #116, #204 ) ;
#207 = EDGE_LOOP ( 'NONE', ( #40 ) ) ;
#208 = CC_DESIGN_APPROVAL ( #225, ( #206 ) ) ;
#209 = MANIFOLD_SOLID_BREP ( 'Corps-Déplacer/Copier1[2]', #210 ) ;
#210 = CLOSED_SHELL ( 'NONE', ( #167, #54, #229 ) ) ;
#211 = DIRECTION ( 'NONE',  ( 1.000000000000000000, 0.0000000000000000000, -3.469446951953615372E-15 ) ) ;
#212 = PRODUCT_DEFINITION_SHAPE ( 'NONE', 'NONE',  #206 ) ;
#213 = CC_DESIGN_PERSON_AND_ORGANIZATION_ASSIGNMENT ( #91, #242, ( #186 ) ) ;
#214 = CARTESIAN_POINT ( 'NONE',  ( 2.000000000000025313, 0.0000000000000000000, 7.178368504635996850 ) ) ;
#215 = PLANE ( 'NONE',  #231 ) ;
#216 = ADVANCED_FACE ( 'NONE', ( #99, #119 ), #90, .T. ) ;
#217 = DIRECTION ( 'NONE',  ( 1.000000000000000000, 0.0000000000000000000, -3.491481338843133355E-15 ) ) ;
#218 =( LENGTH_UNIT ( ) NAMED_UNIT ( * ) SI_UNIT ( .MILLI., .METRE. ) );
#219 = CARTESIAN_POINT ( 'NONE',  ( -4.915890506466203054E-37, 0.0000000000000000000, -1.407967000074253141E-22 ) ) ;
#220 = DIRECTION ( 'NONE',  ( 1.000000000000000000, 0.0000000000000000000, -3.469446951953615372E-15 ) ) ;
#221 = AXIS2_PLACEMENT_3D ( 'NONE', #194, #197, #103 ) ;
#222 = EDGE_LOOP ( 'NONE', ( #195 ) ) ;
#223 = CALENDAR_DATE ( 2021, 9, 11 ) ;
#224 = FACE_BOUND ( 'NONE', #201, .T. ) ;
#225 = APPROVAL ( #187, 'UNSPECIFIED' ) ;
#226 = COORDINATED_UNIVERSAL_TIME_OFFSET ( 1, 0, .AHEAD. ) ;
#227 = AXIS2_PLACEMENT_3D ( 'NONE', #87, #11, #141 ) ;
#228 = DATE_AND_TIME ( #123, #32 ) ;
#229 = ADVANCED_FACE ( 'NONE', ( #83 ), #120, .F. ) ;
#230 = PERSON_AND_ORGANIZATION ( #168, #59 ) ;
#231 = AXIS2_PLACEMENT_3D ( 'NONE', #13, #200, #26 ) ;
#232 = AXIS2_PLACEMENT_3D ( 'NONE', #152, #2, #23 ) ;
#233 = CARTESIAN_POINT ( 'NONE',  ( -9.831781012932406109E-37, 0.0000000000000000000, -2.815934000148506281E-22 ) ) ;
#234 =( NAMED_UNIT ( * ) SI_UNIT ( $, .STERADIAN. ) SOLID_ANGLE_UNIT ( ) );
#235 = EDGE_LOOP ( 'NONE', ( #8 ) ) ;
#236 = ADVANCED_FACE ( 'NONE', ( #53 ), #215, .T. ) ;
#237 = CARTESIAN_POINT ( 'NONE',  ( 9.663156744622304852E-15, 0.0000000000000000000, 2.767638090205028156 ) ) ;
#238 =( GEOMETRIC_REPRESENTATION_CONTEXT ( 3 ) GLOBAL_UNCERTAINTY_ASSIGNED_CONTEXT ( ( #127 ) ) GLOBAL_UNIT_ASSIGNED_CONTEXT ( ( #218, #67, #234 ) ) REPRESENTATION_CONTEXT ( 'NONE', 'WORKASPACE' ) );
#239 = EDGE_LOOP ( 'NONE', ( #34 ) ) ;
#240 = CYLINDRICAL_SURFACE ( 'NONE', #1, 0.7500000000000000000 ) ;
#241 = VERTEX_POINT ( 'NONE', #28 ) ;
#242 = PERSON_AND_ORGANIZATION_ROLE ( 'classification_officer' ) ;
#243 = CARTESIAN_POINT ( 'NONE',  ( 1.326762908760390423E-13, 0.0000000000000000000, 38.00000000000000000 ) ) ;
ENDSEC;
END-ISO-10303-21;
