ISO-10303-21;
HEADER;
FILE_DESCRIPTION (( 'STEP AP203' ),
    '1' );
FILE_NAME ('334866.step',
    '2021-11-09T06:47:10',
    ( '' ),
    ( '' ),
    'SwSTEP 2.0',
    'SolidWorks 2019',
    '' );
FILE_SCHEMA (( 'CONFIG_CONTROL_DESIGN' ));
ENDSEC;

DATA;
#1 = EDGE_CURVE ( 'NONE', #115, #115, #183, .T. ) ;
#2 = DESIGN_CONTEXT ( 'detailed design', #202, 'design' ) ;
#3 = PERSON_AND_ORGANIZATION_ROLE ( 'design_owner' ) ;
#4 = FACE_OUTER_BOUND ( 'NONE', #195, .T. ) ;
#5 = APPROVAL_PERSON_ORGANIZATION ( #219, #89, #37 ) ;
#6 = AXIS2_PLACEMENT_3D ( 'NONE', #100, #164, #121 ) ;
#7 = COORDINATED_UNIVERSAL_TIME_OFFSET ( 1, 0, .AHEAD. ) ;
#8 = CC_DESIGN_APPROVAL ( #146, ( #161 ) ) ;
#9 = COORDINATED_UNIVERSAL_TIME_OFFSET ( 1, 0, .AHEAD. ) ;
#10 = DIRECTION ( 'NONE',  ( 1.000000000000000000, 0.0000000000000000000, -4.336808689942017736E-15 ) ) ;
#11 = CARTESIAN_POINT ( 'NONE',  ( -9.831781012932406109E-37, 0.0000000000000000000, -2.815934000148506281E-22 ) ) ;
#12 = EDGE_LOOP ( 'NONE', ( #85 ) ) ;
#13 = EDGE_LOOP ( 'NONE', ( #238 ) ) ;
#14 = DATE_AND_TIME ( #27, #111 ) ;
#15 = DIRECTION ( 'NONE',  ( 1.000000000000000000, 0.0000000000000000000, 0.0000000000000000000 ) ) ;
#16 = ORIENTED_EDGE ( 'NONE', *, *, #92, .F. ) ;
#17 = COORDINATED_UNIVERSAL_TIME_OFFSET ( 1, 0, .AHEAD. ) ;
#18 = CARTESIAN_POINT ( 'NONE',  ( 1.600000000000132871, 0.0000000000000000000, 37.99999999999999289 ) ) ;
#19 = PRODUCT_DEFINITION_SHAPE ( 'NONE', 'NONE',  #190 ) ;
#20 = DIRECTION ( 'NONE',  ( 3.491481338843133355E-15, -0.0000000000000000000, 1.000000000000000000 ) ) ;
#21 = ADVANCED_FACE ( 'NONE', ( #49, #116 ), #151, .T. ) ;
#22 = CARTESIAN_POINT ( 'NONE',  ( 2.000000000000131450, 0.0000000000000000000, 37.59999999999999432 ) ) ;
#23 = ADVANCED_FACE ( 'NONE', ( #156, #218 ), #165, .T. ) ;
#24 = APPROVAL ( #184, 'UNSPECIFIED' ) ;
#25 = CLOSED_SHELL ( 'NONE', ( #21, #23, #55, #80, #120, #75 ) ) ;
#26 = CC_DESIGN_APPROVAL ( #24, ( #190 ) ) ;
#27 = CALENDAR_DATE ( 2021, 9, 11 ) ;
#28 = EDGE_LOOP ( 'NONE', ( #118 ) ) ;
#29 = CIRCLE ( 'NONE', #130, 2.000000000000000000 ) ;
#30 = DIRECTION ( 'NONE',  ( 1.000000000000000000, 0.0000000000000000000, -3.491481338843133355E-15 ) ) ;
#31 = ORIENTED_EDGE ( 'NONE', *, *, #158, .T. ) ;
#32 = CIRCLE ( 'NONE', #77, 2.000000000000000000 ) ;
#33 = VERTEX_POINT ( 'NONE', #18 ) ;
#34 = CC_DESIGN_PERSON_AND_ORGANIZATION_ASSIGNMENT ( #214, #71, ( #161 ) ) ;
#35 = VERTEX_POINT ( 'NONE', #159 ) ;
#36 = CARTESIAN_POINT ( 'NONE',  ( 1.326762908760390423E-13, 0.0000000000000000000, 38.00000000000000000 ) ) ;
#37 = APPROVAL_ROLE ( '' ) ;
#38 = EDGE_CURVE ( 'NONE', #50, #50, #29, .T. ) ;
#39 = CONICAL_SURFACE ( 'NONE', #166, 2.000000000000000000, 0.2617993877991428020 ) ;
#40 = PERSON_AND_ORGANIZATION ( #232, #93 ) ;
#41 = FACE_OUTER_BOUND ( 'NONE', #236, .T. ) ;
#42 = PERSON_AND_ORGANIZATION ( #232, #93 ) ;
#43 = DIRECTION ( 'NONE',  ( -3.491481338843133355E-15, 0.0000000000000000000, -1.000000000000000000 ) ) ;
#44 = CIRCLE ( 'NONE', #175, 0.7000000000000000666 ) ;
#45 = PRODUCT ( '334866', '334866', '', ( #217 ) ) ;
#46 = EDGE_LOOP ( 'NONE', ( #199 ) ) ;
#47 = PRODUCT_RELATED_PRODUCT_CATEGORY ( 'detail', '', ( #45 ) ) ;
#48 = CARTESIAN_POINT ( 'NONE',  ( 1.312796983405018142E-13, 0.0000000000000000000, 37.60000000000000142 ) ) ;
#49 = FACE_OUTER_BOUND ( 'NONE', #134, .T. ) ;
#50 = VERTEX_POINT ( 'NONE', #240 ) ;
#51 = CARTESIAN_POINT ( 'NONE',  ( 1.326762908760390423E-13, 0.0000000000000000000, 38.00000000000000000 ) ) ;
#52 =( NAMED_UNIT ( * ) PLANE_ANGLE_UNIT ( ) SI_UNIT ( $, .RADIAN. ) );
#53 = FACE_OUTER_BOUND ( 'NONE', #28, .T. ) ;
#54 = PERSON_AND_ORGANIZATION_ROLE ( 'design_supplier' ) ;
#55 = ADVANCED_FACE ( 'NONE', ( #53 ), #201, .T. ) ;
#56 = AXIS2_PLACEMENT_3D ( 'NONE', #51, #160, #241 ) ;
#57 = DIRECTION ( 'NONE',  ( 3.491481338843133355E-15, -0.0000000000000000000, 1.000000000000000000 ) ) ;
#58 = DIRECTION ( 'NONE',  ( 1.000000000000000000, 0.0000000000000000000, -3.491481338843133750E-15 ) ) ;
#59 = DIRECTION ( 'NONE',  ( -3.491481338843133355E-15, 0.0000000000000000000, -1.000000000000000000 ) ) ;
#60 = PLANE ( 'NONE',  #6 ) ;
#61 = CC_DESIGN_PERSON_AND_ORGANIZATION_ASSIGNMENT ( #191, #79, ( #190 ) ) ;
#62 = CARTESIAN_POINT ( 'NONE',  ( 7.332110811570580046E-15, 0.0000000000000000000, 2.100000000000000089 ) ) ;
#63 = CARTESIAN_POINT ( 'NONE',  ( 9.139434543795838005E-15, 0.0000000000000000000, 2.617638090205029133 ) ) ;
#64 = DIRECTION ( 'NONE',  ( 3.491481338843133355E-15, -0.0000000000000000000, 1.000000000000000000 ) ) ;
#65 = DIRECTION ( 'NONE',  ( 0.0000000000000000000, 0.0000000000000000000, 1.000000000000000000 ) ) ;
#66 = AXIS2_PLACEMENT_3D ( 'NONE', #123, #106, #30 ) ;
#67 = DATE_AND_TIME ( #157, #223 ) ;
#68 = APPROVAL_DATE_TIME ( #14, #146 ) ;
#69 = VERTEX_POINT ( 'NONE', #138 ) ;
#70 = CARTESIAN_POINT ( 'NONE',  ( 2.519093676396149821E-14, 0.0000000000000000000, 7.214971045014451967 ) ) ;
#71 = PERSON_AND_ORGANIZATION_ROLE ( 'creator' ) ;
#72 = VERTEX_POINT ( 'NONE', #22 ) ;
#73 = APPLICATION_CONTEXT ( 'configuration controlled 3d designs of mechanical parts and assemblies' ) ;
#74 = CALENDAR_DATE ( 2021, 9, 11 ) ;
#75 = ADVANCED_FACE ( 'NONE', ( #178 ), #60, .T. ) ;
#76 = DIRECTION ( 'NONE',  ( 3.491481338843133355E-15, -0.0000000000000000000, 1.000000000000000000 ) ) ;
#77 = AXIS2_PLACEMENT_3D ( 'NONE', #48, #127, #96 ) ;
#78 = CALENDAR_DATE ( 2021, 9, 11 ) ;
#79 = PERSON_AND_ORGANIZATION_ROLE ( 'creator' ) ;
#80 = ADVANCED_FACE ( 'NONE', ( #103, #4 ), #239, .F. ) ;
#81 = ORIENTED_EDGE ( 'NONE', *, *, #92, .T. ) ;
#82 = DIRECTION ( 'NONE',  ( 3.491481338843133355E-15, -0.0000000000000000000, 1.000000000000000000 ) ) ;
#83 = AXIS2_PLACEMENT_3D ( 'NONE', #62, #64, #136 ) ;
#84 = EDGE_LOOP ( 'NONE', ( #81 ) ) ;
#85 = ORIENTED_EDGE ( 'NONE', *, *, #1, .F. ) ;
#86 = DIRECTION ( 'NONE',  ( 1.000000000000000000, 0.0000000000000000000, -3.491481338843133355E-15 ) ) ;
#87 = ORIENTED_EDGE ( 'NONE', *, *, #126, .F. ) ;
#88 =( NAMED_UNIT ( * ) SI_UNIT ( $, .STERADIAN. ) SOLID_ANGLE_UNIT ( ) );
#89 = APPROVAL ( #242, 'UNSPECIFIED' ) ;
#90 = PERSON_AND_ORGANIZATION ( #232, #93 ) ;
#91 = APPROVAL_ROLE ( '' ) ;
#92 = EDGE_CURVE ( 'NONE', #200, #200, #204, .T. ) ;
#93 = ORGANIZATION ( 'UNSPECIFIED', 'UNSPECIFIED', '' ) ;
#94 = CARTESIAN_POINT ( 'NONE',  ( 2.519093676396149821E-14, 0.0000000000000000000, 7.214971045014451967 ) ) ;
#95 = ORIENTED_EDGE ( 'NONE', *, *, #38, .T. ) ;
#96 = DIRECTION ( 'NONE',  ( 1.000000000000000000, 0.0000000000000000000, -3.469446951953614189E-15 ) ) ;
#97 = AXIS2_PLACEMENT_3D ( 'NONE', #197, #20, #86 ) ;
#98 = CC_DESIGN_APPROVAL ( #89, ( #117 ) ) ;
#99 = EDGE_LOOP ( 'NONE', ( #16 ) ) ;
#100 = CARTESIAN_POINT ( 'NONE',  ( 7.332110811570581624E-15, -4.553649124439116651E-16, 2.100000000000000089 ) ) ;
#101 = DIRECTION ( 'NONE',  ( 3.491481338843133355E-15, -0.0000000000000000000, 1.000000000000000000 ) ) ;
#102 = CC_DESIGN_PERSON_AND_ORGANIZATION_ASSIGNMENT ( #90, #3, ( #45 ) ) ;
#103 = FACE_OUTER_BOUND ( 'NONE', #84, .T. ) ;
#104 = MANIFOLD_SOLID_BREP ( 'Corps-Déplacer/Copier1[2]', #203 ) ;
#105 = APPLICATION_PROTOCOL_DEFINITION ( 'international standard', 'config_control_design', 1994, #202 ) ;
#106 = DIRECTION ( 'NONE',  ( 3.491481338843133355E-15, -0.0000000000000000000, 1.000000000000000000 ) ) ;
#107 = LOCAL_TIME ( 7, 47, 10.00000000000000000, #224 ) ;
#108 = ADVANCED_FACE ( 'NONE', ( #41, #170 ), #237, .T. ) ;
#109 = APPROVAL_STATUS ( 'not_yet_approved' ) ;
#110 = DIRECTION ( 'NONE',  ( 1.000000000000000000, 0.0000000000000000000, -3.387477461480715227E-15 ) ) ;
#111 = LOCAL_TIME ( 7, 47, 10.00000000000000000, #230 ) ;
#112 = DIRECTION ( 'NONE',  ( -1.000000000000000000, 0.0000000000000000000, 3.491481338843133355E-15 ) ) ;
#113 = FACE_OUTER_BOUND ( 'NONE', #13, .T. ) ;
#114 = EDGE_LOOP ( 'NONE', ( #95 ) ) ;
#115 = VERTEX_POINT ( 'NONE', #215 ) ;
#116 = FACE_OUTER_BOUND ( 'NONE', #114, .T. ) ;
#117 = SECURITY_CLASSIFICATION ( '', '', #145 ) ;
#118 = ORIENTED_EDGE ( 'NONE', *, *, #144, .T. ) ;
#119 = EDGE_LOOP ( 'NONE', ( #31 ) ) ;
#120 = ADVANCED_FACE ( 'NONE', ( #231, #188 ), #39, .T. ) ;
#121 = DIRECTION ( 'NONE',  ( -1.000000000000000000, 0.0000000000000000000, 3.491481338843133355E-15 ) ) ;
#122 = PERSON_AND_ORGANIZATION ( #232, #93 ) ;
#123 = CARTESIAN_POINT ( 'NONE',  ( 7.332110811570581624E-15, 0.0000000000000000000, 2.100000000000000089 ) ) ;
#124 = LOCAL_TIME ( 7, 47, 10.00000000000000000, #9 ) ;
#125 = APPROVAL_DATE_TIME ( #133, #89 ) ;
#126 = EDGE_CURVE ( 'NONE', #72, #72, #32, .T. ) ;
#127 = DIRECTION ( 'NONE',  ( 3.491481338843133355E-15, -0.0000000000000000000, 1.000000000000000000 ) ) ;
#128 = CARTESIAN_POINT ( 'NONE',  ( 7.332110811570581624E-15, -4.553649124439116651E-16, 2.100000000000000089 ) ) ;
#129 = EDGE_LOOP ( 'NONE', ( #216 ) ) ;
#130 = AXIS2_PLACEMENT_3D ( 'NONE', #70, #143, #221 ) ;
#131 = APPROVAL_DATE_TIME ( #234, #24 ) ;
#132 = FACE_OUTER_BOUND ( 'NONE', #139, .T. ) ;
#133 = DATE_AND_TIME ( #74, #107 ) ;
#134 = EDGE_LOOP ( 'NONE', ( #87 ) ) ;
#135 = PLANE ( 'NONE',  #180 ) ;
#136 = DIRECTION ( 'NONE',  ( 1.000000000000000000, 0.0000000000000000000, -3.717264591378874374E-15 ) ) ;
#137 = UNCERTAINTY_MEASURE_WITH_UNIT (LENGTH_MEASURE( 1.000000000000000082E-05 ), #142, 'distance_accuracy_value', 'NONE');
#138 = CARTESIAN_POINT ( 'NONE',  ( 0.7681483474218696594, 0.0000000000000000000, 2.617638090205026469 ) ) ;
#139 = EDGE_LOOP ( 'NONE', ( #211 ) ) ;
#140 = DATE_TIME_ROLE ( 'classification_date' ) ;
#141 = AXIS2_PLACEMENT_3D ( 'NONE', #63, #57, #110 ) ;
#142 =( LENGTH_UNIT ( ) NAMED_UNIT ( * ) SI_UNIT ( .MILLI., .METRE. ) );
#143 = DIRECTION ( 'NONE',  ( 3.491481338843133355E-15, -0.0000000000000000000, 1.000000000000000000 ) ) ;
#144 = EDGE_CURVE ( 'NONE', #33, #33, #153, .T. ) ;
#145 = SECURITY_CLASSIFICATION_LEVEL ( 'unclassified' ) ;
#146 = APPROVAL ( #109, 'UNSPECIFIED' ) ;
#147 = AXIS2_PLACEMENT_3D ( 'NONE', #171, #59, #235 ) ;
#148 = LOCAL_TIME ( 7, 47, 10.00000000000000000, #7 ) ;
#149 = DATE_TIME_ROLE ( 'creation_date' ) ;
#150 = PLANE ( 'NONE',  #147 ) ;
#151 = CYLINDRICAL_SURFACE ( 'NONE', #97, 2.000000000000000000 ) ;
#152 = EDGE_LOOP ( 'NONE', ( #173 ) ) ;
#153 = CIRCLE ( 'NONE', #169, 1.600000000000000089 ) ;
#154 = ORIENTED_EDGE ( 'NONE', *, *, #229, .T. ) ;
#155 = APPLICATION_PROTOCOL_DEFINITION ( 'international standard', 'config_control_design', 1994, #73 ) ;
#156 = FACE_OUTER_BOUND ( 'NONE', #129, .T. ) ;
#157 = CALENDAR_DATE ( 2021, 9, 11 ) ;
#158 = EDGE_CURVE ( 'NONE', #69, #69, #226, .T. ) ;
#159 = CARTESIAN_POINT ( 'NONE',  ( 0.7000000000000000666, 0.0000000000000000000, -2.444037218783593719E-15 ) ) ;
#160 = DIRECTION ( 'NONE',  ( -3.491481338843133355E-15, 0.0000000000000000000, -1.000000000000000000 ) ) ;
#161 = PRODUCT_DEFINITION_FORMATION_WITH_SPECIFIED_SOURCE ( 'ANY', '', #45, .NOT_KNOWN. ) ;
#162 = CARTESIAN_POINT ( 'NONE',  ( 0.7000000000000070610, 0.0000000000000000000, 2.099999999999997424 ) ) ;
#163 = ADVANCED_BREP_SHAPE_REPRESENTATION ( '334866', ( #185, #104, #189 ), #208 ) ;
#164 = DIRECTION ( 'NONE',  ( -3.491481338843133355E-15, 0.0000000000000000000, -1.000000000000000000 ) ) ;
#165 = CONICAL_SURFACE ( 'NONE', #56, 1.600000000000000089, 0.7853981633974512766 ) ;
#166 = AXIS2_PLACEMENT_3D ( 'NONE', #94, #76, #186 ) ;
#167 = CC_DESIGN_PERSON_AND_ORGANIZATION_ASSIGNMENT ( #181, #177, ( #117 ) ) ;
#168 = CARTESIAN_POINT ( 'NONE',  ( 0.0000000000000000000, 0.0000000000000000000, 0.0000000000000000000 ) ) ;
#169 = AXIS2_PLACEMENT_3D ( 'NONE', #225, #209, #10 ) ;
#170 = FACE_OUTER_BOUND ( 'NONE', #12, .T. ) ;
#171 = CARTESIAN_POINT ( 'NONE',  ( -4.915890506466203054E-37, 0.0000000000000000000, -1.407967000074253141E-22 ) ) ;
#172 = CC_DESIGN_DATE_AND_TIME_ASSIGNMENT ( #67, #140, ( #117 ) ) ;
#173 = ORIENTED_EDGE ( 'NONE', *, *, #38, .F. ) ;
#174 = DIRECTION ( 'NONE',  ( 3.491481338843133355E-15, -0.0000000000000000000, 1.000000000000000000 ) ) ;
#175 = AXIS2_PLACEMENT_3D ( 'NONE', #11, #82, #213 ) ;
#176 = CARTESIAN_POINT ( 'NONE',  ( 0.0000000000000000000, 0.0000000000000000000, 0.0000000000000000000 ) ) ;
#177 = PERSON_AND_ORGANIZATION_ROLE ( 'classification_officer' ) ;
#178 = FACE_OUTER_BOUND ( 'NONE', #99, .T. ) ;
#179 = AXIS2_PLACEMENT_3D ( 'NONE', #36, #101, #233 ) ;
#180 = AXIS2_PLACEMENT_3D ( 'NONE', #128, #43, #112 ) ;
#181 = PERSON_AND_ORGANIZATION ( #232, #93 ) ;
#182 = CC_DESIGN_DATE_AND_TIME_ASSIGNMENT ( #227, #149, ( #190 ) ) ;
#183 = CIRCLE ( 'NONE', #83, 0.6999999999999996225 ) ;
#184 = APPROVAL_STATUS ( 'not_yet_approved' ) ;
#185 = MANIFOLD_SOLID_BREP ( 'Corps-Déplacer/Copier1[1]', #25 ) ;
#186 = DIRECTION ( 'NONE',  ( 1.000000000000000000, 0.0000000000000000000, -3.469446951953614189E-15 ) ) ;
#187 = APPROVAL_ROLE ( '' ) ;
#188 = FACE_OUTER_BOUND ( 'NONE', #152, .T. ) ;
#189 = AXIS2_PLACEMENT_3D ( 'NONE', #176, #65, #15 ) ;
#190 = PRODUCT_DEFINITION ( 'UNKNOWN', '', #161, #2 ) ;
#191 = PERSON_AND_ORGANIZATION ( #232, #93 ) ;
#192 = ORIENTED_EDGE ( 'NONE', *, *, #158, .F. ) ;
#193 = CALENDAR_DATE ( 2021, 9, 11 ) ;
#194 = DIRECTION ( 'NONE',  ( 1.000000000000000000, 0.0000000000000000000, -3.717264591378874374E-15 ) ) ;
#195 = EDGE_LOOP ( 'NONE', ( #192 ) ) ;
#196 = AXIS2_PLACEMENT_3D ( 'NONE', #207, #228, #194 ) ;
#197 = CARTESIAN_POINT ( 'NONE',  ( 0.0000000000000000000, 0.0000000000000000000, 0.0000000000000000000 ) ) ;
#198 = APPROVAL_PERSON_ORGANIZATION ( #40, #24, #91 ) ;
#199 = ORIENTED_EDGE ( 'NONE', *, *, #144, .F. ) ;
#200 = VERTEX_POINT ( 'NONE', #162 ) ;
#201 = PLANE ( 'NONE',  #179 ) ;
#202 = APPLICATION_CONTEXT ( 'configuration controlled 3d designs of mechanical parts and assemblies' ) ;
#203 = CLOSED_SHELL ( 'NONE', ( #210, #108, #222 ) ) ;
#204 = CIRCLE ( 'NONE', #196, 0.6999999999999996225 ) ;
#205 = CC_DESIGN_PERSON_AND_ORGANIZATION_ASSIGNMENT ( #122, #54, ( #161 ) ) ;
#206 = SHAPE_DEFINITION_REPRESENTATION ( #19, #163 ) ;
#207 = CARTESIAN_POINT ( 'NONE',  ( 7.332110811570580046E-15, 0.0000000000000000000, 2.100000000000000089 ) ) ;
#208 =( GEOMETRIC_REPRESENTATION_CONTEXT ( 3 ) GLOBAL_UNCERTAINTY_ASSIGNED_CONTEXT ( ( #137 ) ) GLOBAL_UNIT_ASSIGNED_CONTEXT ( ( #142, #52, #88 ) ) REPRESENTATION_CONTEXT ( 'NONE', 'WORKASPACE' ) );
#209 = DIRECTION ( 'NONE',  ( 3.491481338843133355E-15, -0.0000000000000000000, 1.000000000000000000 ) ) ;
#210 = ADVANCED_FACE ( 'NONE', ( #113 ), #150, .T. ) ;
#211 = ORIENTED_EDGE ( 'NONE', *, *, #1, .T. ) ;
#212 = APPROVAL_PERSON_ORGANIZATION ( #42, #146, #187 ) ;
#213 = DIRECTION ( 'NONE',  ( 1.000000000000000000, 0.0000000000000000000, -3.491481338843133750E-15 ) ) ;
#214 = PERSON_AND_ORGANIZATION ( #232, #93 ) ;
#215 = CARTESIAN_POINT ( 'NONE',  ( 0.7000000000000070610, 0.0000000000000000000, 2.099999999999997424 ) ) ;
#216 = ORIENTED_EDGE ( 'NONE', *, *, #126, .T. ) ;
#217 = MECHANICAL_CONTEXT ( 'NONE', #73, 'mechanical' ) ;
#218 = FACE_BOUND ( 'NONE', #46, .T. ) ;
#219 = PERSON_AND_ORGANIZATION ( #232, #93 ) ;
#220 = CC_DESIGN_SECURITY_CLASSIFICATION ( #117, ( #161 ) ) ;
#221 = DIRECTION ( 'NONE',  ( 1.000000000000000000, 0.0000000000000000000, -3.469446951953614189E-15 ) ) ;
#222 = ADVANCED_FACE ( 'NONE', ( #132 ), #135, .F. ) ;
#223 = LOCAL_TIME ( 7, 47, 10.00000000000000000, #17 ) ;
#224 = COORDINATED_UNIVERSAL_TIME_OFFSET ( 1, 0, .AHEAD. ) ;
#225 = CARTESIAN_POINT ( 'NONE',  ( 1.326762908760390423E-13, 0.0000000000000000000, 38.00000000000000000 ) ) ;
#226 = CIRCLE ( 'NONE', #141, 0.7681483474218605556 ) ;
#227 = DATE_AND_TIME ( #78, #148 ) ;
#228 = DIRECTION ( 'NONE',  ( 3.491481338843133355E-15, -0.0000000000000000000, 1.000000000000000000 ) ) ;
#229 = EDGE_CURVE ( 'NONE', #35, #35, #44, .T. ) ;
#230 = COORDINATED_UNIVERSAL_TIME_OFFSET ( 1, 0, .AHEAD. ) ;
#231 = FACE_BOUND ( 'NONE', #119, .T. ) ;
#232 = PERSON ( 'UNSPECIFIED', 'UNSPECIFIED', 'UNSPECIFIED', ('UNSPECIFIED'), ('UNSPECIFIED'), ('UNSPECIFIED') ) ;
#233 = DIRECTION ( 'NONE',  ( 1.000000000000000000, 0.0000000000000000000, -3.491481338843133355E-15 ) ) ;
#234 = DATE_AND_TIME ( #193, #124 ) ;
#235 = DIRECTION ( 'NONE',  ( -1.000000000000000000, 0.0000000000000000000, 3.491481338843133355E-15 ) ) ;
#236 = EDGE_LOOP ( 'NONE', ( #154 ) ) ;
#237 = CYLINDRICAL_SURFACE ( 'NONE', #243, 0.6999999999999998446 ) ;
#238 = ORIENTED_EDGE ( 'NONE', *, *, #229, .F. ) ;
#239 = TOROIDAL_SURFACE ( 'NONE', #66, 2.700000000000000622, 2.000000000000000000 ) ;
#240 = CARTESIAN_POINT ( 'NONE',  ( 2.000000000000025313, 0.0000000000000000000, 7.214971045014444861 ) ) ;
#241 = DIRECTION ( 'NONE',  ( -1.000000000000000000, 0.0000000000000000000, 4.336808689942017736E-15 ) ) ;
#242 = APPROVAL_STATUS ( 'not_yet_approved' ) ;
#243 = AXIS2_PLACEMENT_3D ( 'NONE', #168, #174, #58 ) ;
ENDSEC;
END-ISO-10303-21;
