ISO-10303-21;
HEADER;
FILE_DESCRIPTION (( 'STEP AP203' ),
    '1' );
FILE_NAME ('334864.step',
    '2021-11-09T06:47:09',
    ( '' ),
    ( '' ),
    'SwSTEP 2.0',
    'SolidWorks 2019',
    '' );
FILE_SCHEMA (( 'CONFIG_CONTROL_DESIGN' ));
ENDSEC;

DATA;
#1 = FACE_OUTER_BOUND ( 'NONE', #177, .T. ) ;
#2 = DIRECTION ( 'NONE',  ( 0.0000000000000000000, 0.0000000000000000000, 1.000000000000000000 ) ) ;
#3 = EDGE_CURVE ( 'NONE', #107, #107, #211, .T. ) ;
#4 = PERSON_AND_ORGANIZATION ( #25, #86 ) ;
#5 = CALENDAR_DATE ( 2021, 9, 11 ) ;
#6 = EDGE_CURVE ( 'NONE', #73, #73, #13, .T. ) ;
#7 = TOROIDAL_SURFACE ( 'NONE', #90, 2.599999999999999645, 2.000000000000000000 ) ;
#8 = CIRCLE ( 'NONE', #95, 0.5999999999999994227 ) ;
#9 = APPROVAL_PERSON_ORGANIZATION ( #41, #22, #194 ) ;
#10 = CARTESIAN_POINT ( 'NONE',  ( 1.326762908760390423E-13, 0.0000000000000000000, 38.00000000000000000 ) ) ;
#11 = ADVANCED_FACE ( 'NONE', ( #181, #108 ), #195, .T. ) ;
#12 = ADVANCED_BREP_SHAPE_REPRESENTATION ( '334864', ( #30, #32, #100 ), #64 ) ;
#13 = CIRCLE ( 'NONE', #51, 0.5999999999999994227 ) ;
#14 = EDGE_LOOP ( 'NONE', ( #112 ) ) ;
#15 = APPROVAL_STATUS ( 'not_yet_approved' ) ;
#16 = DIRECTION ( 'NONE',  ( 3.491481338843133355E-15, -0.0000000000000000000, 1.000000000000000000 ) ) ;
#17 = DIRECTION ( 'NONE',  ( -1.000000000000000000, 0.0000000000000000000, 4.336808689942017736E-15 ) ) ;
#18 = DIRECTION ( 'NONE',  ( 1.000000000000000000, 0.0000000000000000000, -3.245393561681458416E-15 ) ) ;
#19 = CYLINDRICAL_SURFACE ( 'NONE', #113, 0.5999999999999996447 ) ;
#20 = CARTESIAN_POINT ( 'NONE',  ( 0.5999999999999998668, 0.0000000000000000000, -2.094889084899279200E-15 ) ) ;
#21 = PERSON_AND_ORGANIZATION_ROLE ( 'creator' ) ;
#22 = APPROVAL ( #42, 'UNSPECIFIED' ) ;
#23 = PERSON_AND_ORGANIZATION_ROLE ( 'creator' ) ;
#24 = APPROVAL_DATE_TIME ( #59, #22 ) ;
#25 = PERSON ( 'UNSPECIFIED', 'UNSPECIFIED', 'UNSPECIFIED', ('UNSPECIFIED'), ('UNSPECIFIED'), ('UNSPECIFIED') ) ;
#26 = CARTESIAN_POINT ( 'NONE',  ( -9.831781012932406109E-37, 0.0000000000000000000, -2.815934000148506281E-22 ) ) ;
#27 = LOCAL_TIME ( 7, 47, 9.000000000000000000, #72 ) ;
#28 = ADVANCED_FACE ( 'NONE', ( #187, #127 ), #19, .T. ) ;
#29 = EDGE_LOOP ( 'NONE', ( #138 ) ) ;
#30 = MANIFOLD_SOLID_BREP ( 'Corps-Déplacer/Copier1[1]', #84 ) ;
#31 = FACE_OUTER_BOUND ( 'NONE', #153, .T. ) ;
#32 = MANIFOLD_SOLID_BREP ( 'Corps-Déplacer/Copier1[2]', #123 ) ;
#33 = DIRECTION ( 'NONE',  ( 3.491481338843133355E-15, -0.0000000000000000000, 1.000000000000000000 ) ) ;
#34 = APPLICATION_PROTOCOL_DEFINITION ( 'international standard', 'config_control_design', 1994, #173 ) ;
#35 = DIRECTION ( 'NONE',  ( 1.000000000000000000, 0.0000000000000000000, -3.614007241618351532E-15 ) ) ;
#36 = CARTESIAN_POINT ( 'NONE',  ( 0.0000000000000000000, 0.0000000000000000000, 0.0000000000000000000 ) ) ;
#37 = CARTESIAN_POINT ( 'NONE',  ( 1.326762908760390423E-13, 0.0000000000000000000, 38.00000000000000000 ) ) ;
#38 = CARTESIAN_POINT ( 'NONE',  ( 0.0000000000000000000, 0.0000000000000000000, 0.0000000000000000000 ) ) ;
#39 = CARTESIAN_POINT ( 'NONE',  ( 0.6000000000000056399, 0.0000000000000000000, 1.799999999999997602 ) ) ;
#40 = ADVANCED_FACE ( 'NONE', ( #160, #239 ), #104, .T. ) ;
#41 = PERSON_AND_ORGANIZATION ( #25, #86 ) ;
#42 = APPROVAL_STATUS ( 'not_yet_approved' ) ;
#43 = LOCAL_TIME ( 7, 47, 9.000000000000000000, #98 ) ;
#44 = CC_DESIGN_SECURITY_CLASSIFICATION ( #200, ( #174 ) ) ;
#45 = APPROVAL ( #15, 'UNSPECIFIED' ) ;
#46 = CARTESIAN_POINT ( 'NONE',  ( 6.284666409917640040E-15, 0.0000000000000000000, 1.800000000000000044 ) ) ;
#47 = DIRECTION ( 'NONE',  ( 3.491481338843133355E-15, -0.0000000000000000000, 1.000000000000000000 ) ) ;
#48 = ORIENTED_EDGE ( 'NONE', *, *, #215, .F. ) ;
#49 = FACE_OUTER_BOUND ( 'NONE', #14, .T. ) ;
#50 = EDGE_LOOP ( 'NONE', ( #223 ) ) ;
#51 = AXIS2_PLACEMENT_3D ( 'NONE', #157, #71, #35 ) ;
#52 = ORIENTED_EDGE ( 'NONE', *, *, #167, .F. ) ;
#53 = APPROVAL ( #132, 'UNSPECIFIED' ) ;
#54 = ORIENTED_EDGE ( 'NONE', *, *, #117, .T. ) ;
#55 = DATE_AND_TIME ( #143, #27 ) ;
#56 = PLANE ( 'NONE',  #126 ) ;
#57 = ADVANCED_FACE ( 'NONE', ( #31, #122 ), #7, .F. ) ;
#58 = CARTESIAN_POINT ( 'NONE',  ( 6.284666409917639251E-15, 0.0000000000000000000, 1.799999999999999822 ) ) ;
#59 = DATE_AND_TIME ( #191, #118 ) ;
#60 = CC_DESIGN_DATE_AND_TIME_ASSIGNMENT ( #147, #190, ( #200 ) ) ;
#61 = APPROVAL_PERSON_ORGANIZATION ( #151, #53, #99 ) ;
#62 = CC_DESIGN_APPROVAL ( #53, ( #174 ) ) ;
#63 = EDGE_CURVE ( 'NONE', #139, #139, #79, .T. ) ;
#64 =( GEOMETRIC_REPRESENTATION_CONTEXT ( 3 ) GLOBAL_UNCERTAINTY_ASSIGNED_CONTEXT ( ( #165 ) ) GLOBAL_UNIT_ASSIGNED_CONTEXT ( ( #66, #242, #236 ) ) REPRESENTATION_CONTEXT ( 'NONE', 'WORKASPACE' ) );
#65 = CIRCLE ( 'NONE', #102, 0.6681483474218594676 ) ;
#66 =( LENGTH_UNIT ( ) NAMED_UNIT ( * ) SI_UNIT ( .MILLI., .METRE. ) );
#67 = EDGE_LOOP ( 'NONE', ( #54 ) ) ;
#68 = PRODUCT ( '334864', '334864', '', ( #150 ) ) ;
#69 = DIRECTION ( 'NONE',  ( 3.491481338843133355E-15, -0.0000000000000000000, 1.000000000000000000 ) ) ;
#70 = PRODUCT_DEFINITION ( 'UNKNOWN', '', #174, #76 ) ;
#71 = DIRECTION ( 'NONE',  ( 3.491481338843133355E-15, -0.0000000000000000000, 1.000000000000000000 ) ) ;
#72 = COORDINATED_UNIVERSAL_TIME_OFFSET ( 1, 0, .AHEAD. ) ;
#73 = VERTEX_POINT ( 'NONE', #96 ) ;
#74 = ORIENTED_EDGE ( 'NONE', *, *, #117, .F. ) ;
#75 = EDGE_LOOP ( 'NONE', ( #145 ) ) ;
#76 = DESIGN_CONTEXT ( 'detailed design', #192, 'design' ) ;
#77 = VERTEX_POINT ( 'NONE', #39 ) ;
#78 = PERSON_AND_ORGANIZATION ( #25, #86 ) ;
#79 = CIRCLE ( 'NONE', #136, 0.5999999999999998668 ) ;
#80 = SHAPE_DEFINITION_REPRESENTATION ( #176, #12 ) ;
#81 = DATE_AND_TIME ( #169, #198 ) ;
#82 = ADVANCED_FACE ( 'NONE', ( #103 ), #230, .T. ) ;
#83 = DATE_AND_TIME ( #5, #43 ) ;
#84 = CLOSED_SHELL ( 'NONE', ( #170, #11, #82, #57, #40, #209 ) ) ;
#85 = EDGE_LOOP ( 'NONE', ( #234 ) ) ;
#86 = ORGANIZATION ( 'UNSPECIFIED', 'UNSPECIFIED', '' ) ;
#87 = DIRECTION ( 'NONE',  ( 3.491481338843133355E-15, -0.0000000000000000000, 1.000000000000000000 ) ) ;
#88 = ADVANCED_FACE ( 'NONE', ( #201 ), #152, .T. ) ;
#89 = DIRECTION ( 'NONE',  ( 1.000000000000000000, 0.0000000000000000000, -3.491481338843133355E-15 ) ) ;
#90 = AXIS2_PLACEMENT_3D ( 'NONE', #46, #231, #137 ) ;
#91 = CARTESIAN_POINT ( 'NONE',  ( 6.284666409917640040E-15, -1.951563910473907242E-16, 1.800000000000000044 ) ) ;
#92 = EDGE_LOOP ( 'NONE', ( #203 ) ) ;
#93 = DIRECTION ( 'NONE',  ( -3.491481338843133355E-15, 0.0000000000000000000, -1.000000000000000000 ) ) ;
#94 = CARTESIAN_POINT ( 'NONE',  ( 0.0000000000000000000, 0.0000000000000000000, 0.0000000000000000000 ) ) ;
#95 = AXIS2_PLACEMENT_3D ( 'NONE', #58, #159, #217 ) ;
#96 = CARTESIAN_POINT ( 'NONE',  ( 0.6000000000000056399, 0.0000000000000000000, 1.799999999999997602 ) ) ;
#97 = DIRECTION ( 'NONE',  ( 1.000000000000000000, 0.0000000000000000000, -3.469446951953614189E-15 ) ) ;
#98 = COORDINATED_UNIVERSAL_TIME_OFFSET ( 1, 0, .AHEAD. ) ;
#99 = APPROVAL_ROLE ( '' ) ;
#100 = AXIS2_PLACEMENT_3D ( 'NONE', #36, #2, #119 ) ;
#101 = PERSON_AND_ORGANIZATION ( #25, #86 ) ;
#102 = AXIS2_PLACEMENT_3D ( 'NONE', #235, #33, #18 ) ;
#103 = FACE_OUTER_BOUND ( 'NONE', #85, .T. ) ;
#104 = CONICAL_SURFACE ( 'NONE', #229, 2.000000000000000000, 0.2617993877991428020 ) ;
#105 = ORIENTED_EDGE ( 'NONE', *, *, #63, .F. ) ;
#106 = AXIS2_PLACEMENT_3D ( 'NONE', #114, #69, #97 ) ;
#107 = VERTEX_POINT ( 'NONE', #130 ) ;
#108 = FACE_BOUND ( 'NONE', #154, .T. ) ;
#109 = CARTESIAN_POINT ( 'NONE',  ( -4.915890506466203054E-37, 0.0000000000000000000, -1.407967000074253141E-22 ) ) ;
#110 = DIRECTION ( 'NONE',  ( 3.491481338843133355E-15, -0.0000000000000000000, 1.000000000000000000 ) ) ;
#111 = FACE_OUTER_BOUND ( 'NONE', #50, .T. ) ;
#112 = ORIENTED_EDGE ( 'NONE', *, *, #183, .F. ) ;
#113 = AXIS2_PLACEMENT_3D ( 'NONE', #94, #110, #185 ) ;
#114 = CARTESIAN_POINT ( 'NONE',  ( 1.312796983405018142E-13, 0.0000000000000000000, 37.60000000000000142 ) ) ;
#115 = COORDINATED_UNIVERSAL_TIME_OFFSET ( 1, 0, .AHEAD. ) ;
#116 = PERSON_AND_ORGANIZATION_ROLE ( 'design_owner' ) ;
#117 = EDGE_CURVE ( 'NONE', #163, #163, #65, .T. ) ;
#118 = LOCAL_TIME ( 7, 47, 9.000000000000000000, #226 ) ;
#119 = DIRECTION ( 'NONE',  ( 1.000000000000000000, 0.0000000000000000000, 0.0000000000000000000 ) ) ;
#120 = PERSON_AND_ORGANIZATION_ROLE ( 'classification_officer' ) ;
#121 = CC_DESIGN_PERSON_AND_ORGANIZATION_ASSIGNMENT ( #227, #21, ( #174 ) ) ;
#122 = FACE_OUTER_BOUND ( 'NONE', #128, .T. ) ;
#123 = CLOSED_SHELL ( 'NONE', ( #88, #28, #135 ) ) ;
#124 = EDGE_LOOP ( 'NONE', ( #52 ) ) ;
#125 = DIRECTION ( 'NONE',  ( -3.491481338843133355E-15, 0.0000000000000000000, -1.000000000000000000 ) ) ;
#126 = AXIS2_PLACEMENT_3D ( 'NONE', #224, #125, #238 ) ;
#127 = FACE_OUTER_BOUND ( 'NONE', #92, .T. ) ;
#128 = EDGE_LOOP ( 'NONE', ( #74 ) ) ;
#129 = DIRECTION ( 'NONE',  ( -1.000000000000000000, 0.0000000000000000000, 3.491481338843133355E-15 ) ) ;
#130 = CARTESIAN_POINT ( 'NONE',  ( 1.600000000000132871, 0.0000000000000000000, 37.99999999999999289 ) ) ;
#131 = COORDINATED_UNIVERSAL_TIME_OFFSET ( 1, 0, .AHEAD. ) ;
#132 = APPROVAL_STATUS ( 'not_yet_approved' ) ;
#133 = PERSON_AND_ORGANIZATION_ROLE ( 'design_supplier' ) ;
#134 = AXIS2_PLACEMENT_3D ( 'NONE', #10, #47, #89 ) ;
#135 = ADVANCED_FACE ( 'NONE', ( #178 ), #56, .F. ) ;
#136 = AXIS2_PLACEMENT_3D ( 'NONE', #26, #87, #199 ) ;
#137 = DIRECTION ( 'NONE',  ( 1.000000000000000000, 0.0000000000000000000, -3.491481338843132961E-15 ) ) ;
#138 = ORIENTED_EDGE ( 'NONE', *, *, #63, .T. ) ;
#139 = VERTEX_POINT ( 'NONE', #20 ) ;
#140 = ORIENTED_EDGE ( 'NONE', *, *, #3, .F. ) ;
#141 = CC_DESIGN_PERSON_AND_ORGANIZATION_ASSIGNMENT ( #101, #120, ( #200 ) ) ;
#142 = CC_DESIGN_APPROVAL ( #22, ( #70 ) ) ;
#143 = CALENDAR_DATE ( 2021, 9, 11 ) ;
#144 = CC_DESIGN_APPROVAL ( #45, ( #200 ) ) ;
#145 = ORIENTED_EDGE ( 'NONE', *, *, #6, .T. ) ;
#146 = DIRECTION ( 'NONE',  ( 1.000000000000000000, 0.0000000000000000000, -4.336808689942017736E-15 ) ) ;
#147 = DATE_AND_TIME ( #182, #162 ) ;
#148 = CARTESIAN_POINT ( 'NONE',  ( 2.544653093733272676E-14, 0.0000000000000000000, 7.288176125771354208 ) ) ;
#149 = APPLICATION_PROTOCOL_DEFINITION ( 'international standard', 'config_control_design', 1994, #192 ) ;
#150 = MECHANICAL_CONTEXT ( 'NONE', #173, 'mechanical' ) ;
#151 = PERSON_AND_ORGANIZATION ( #25, #86 ) ;
#152 = PLANE ( 'NONE',  #171 ) ;
#153 = EDGE_LOOP ( 'NONE', ( #172 ) ) ;
#154 = EDGE_LOOP ( 'NONE', ( #140 ) ) ;
#155 = CIRCLE ( 'NONE', #106, 2.000000000000000000 ) ;
#156 = CARTESIAN_POINT ( 'NONE',  ( 2.000000000000025757, 0.0000000000000000000, 7.288176125771347102 ) ) ;
#157 = CARTESIAN_POINT ( 'NONE',  ( 6.284666409917639251E-15, 0.0000000000000000000, 1.799999999999999822 ) ) ;
#158 = PERSON_AND_ORGANIZATION ( #25, #86 ) ;
#159 = DIRECTION ( 'NONE',  ( 3.491481338843133355E-15, -0.0000000000000000000, 1.000000000000000000 ) ) ;
#160 = FACE_BOUND ( 'NONE', #67, .T. ) ;
#161 = AXIS2_PLACEMENT_3D ( 'NONE', #91, #93, #188 ) ;
#162 = LOCAL_TIME ( 7, 47, 9.000000000000000000, #131 ) ;
#163 = VERTEX_POINT ( 'NONE', #222 ) ;
#164 = CARTESIAN_POINT ( 'NONE',  ( 1.326762908760390423E-13, 0.0000000000000000000, 38.00000000000000000 ) ) ;
#165 = UNCERTAINTY_MEASURE_WITH_UNIT (LENGTH_MEASURE( 1.000000000000000082E-05 ), #66, 'distance_accuracy_value', 'NONE');
#166 = PLANE ( 'NONE',  #161 ) ;
#167 = EDGE_CURVE ( 'NONE', #212, #212, #204, .T. ) ;
#168 = SECURITY_CLASSIFICATION_LEVEL ( 'unclassified' ) ;
#169 = CALENDAR_DATE ( 2021, 9, 11 ) ;
#170 = ADVANCED_FACE ( 'NONE', ( #49, #111 ), #210, .T. ) ;
#171 = AXIS2_PLACEMENT_3D ( 'NONE', #109, #219, #129 ) ;
#172 = ORIENTED_EDGE ( 'NONE', *, *, #215, .T. ) ;
#173 = APPLICATION_CONTEXT ( 'configuration controlled 3d designs of mechanical parts and assemblies' ) ;
#174 = PRODUCT_DEFINITION_FORMATION_WITH_SPECIFIED_SOURCE ( 'ANY', '', #68, .NOT_KNOWN. ) ;
#175 = APPROVAL_PERSON_ORGANIZATION ( #158, #45, #241 ) ;
#176 = PRODUCT_DEFINITION_SHAPE ( 'NONE', 'NONE',  #70 ) ;
#177 = EDGE_LOOP ( 'NONE', ( #48 ) ) ;
#178 = FACE_OUTER_BOUND ( 'NONE', #75, .T. ) ;
#179 = AXIS2_PLACEMENT_3D ( 'NONE', #37, #220, #17 ) ;
#180 = VERTEX_POINT ( 'NONE', #205 ) ;
#181 = FACE_OUTER_BOUND ( 'NONE', #243, .T. ) ;
#182 = CALENDAR_DATE ( 2021, 9, 11 ) ;
#183 = EDGE_CURVE ( 'NONE', #180, #180, #155, .T. ) ;
#184 = DIRECTION ( 'NONE',  ( 3.491481338843133355E-15, -0.0000000000000000000, 1.000000000000000000 ) ) ;
#185 = DIRECTION ( 'NONE',  ( 1.000000000000000000, 0.0000000000000000000, -3.491481338843132961E-15 ) ) ;
#186 = DIRECTION ( 'NONE',  ( 1.000000000000000000, 0.0000000000000000000, -3.491481338843133355E-15 ) ) ;
#187 = FACE_OUTER_BOUND ( 'NONE', #29, .T. ) ;
#188 = DIRECTION ( 'NONE',  ( -1.000000000000000000, 0.0000000000000000000, 3.491481338843133355E-15 ) ) ;
#189 = APPROVAL_DATE_TIME ( #81, #53 ) ;
#190 = DATE_TIME_ROLE ( 'classification_date' ) ;
#191 = CALENDAR_DATE ( 2021, 9, 11 ) ;
#192 = APPLICATION_CONTEXT ( 'configuration controlled 3d designs of mechanical parts and assemblies' ) ;
#193 = CC_DESIGN_PERSON_AND_ORGANIZATION_ASSIGNMENT ( #214, #133, ( #174 ) ) ;
#194 = APPROVAL_ROLE ( '' ) ;
#195 = CONICAL_SURFACE ( 'NONE', #179, 1.600000000000000089, 0.7853981633974512766 ) ;
#196 = CC_DESIGN_PERSON_AND_ORGANIZATION_ASSIGNMENT ( #78, #116, ( #68 ) ) ;
#197 = DIRECTION ( 'NONE',  ( 3.491481338843133355E-15, -0.0000000000000000000, 1.000000000000000000 ) ) ;
#198 = LOCAL_TIME ( 7, 47, 9.000000000000000000, #115 ) ;
#199 = DIRECTION ( 'NONE',  ( 1.000000000000000000, 0.0000000000000000000, -3.491481338843132961E-15 ) ) ;
#200 = SECURITY_CLASSIFICATION ( '', '', #168 ) ;
#201 = FACE_OUTER_BOUND ( 'NONE', #237, .T. ) ;
#202 = DIRECTION ( 'NONE',  ( 1.000000000000000000, 0.0000000000000000000, -3.469446951953614189E-15 ) ) ;
#203 = ORIENTED_EDGE ( 'NONE', *, *, #6, .F. ) ;
#204 = CIRCLE ( 'NONE', #216, 2.000000000000000000 ) ;
#205 = CARTESIAN_POINT ( 'NONE',  ( 2.000000000000131450, 0.0000000000000000000, 37.59999999999999432 ) ) ;
#206 = DIRECTION ( 'NONE',  ( 3.491481338843133355E-15, -0.0000000000000000000, 1.000000000000000000 ) ) ;
#207 = DIRECTION ( 'NONE',  ( 1.000000000000000000, 0.0000000000000000000, -3.469446951953614189E-15 ) ) ;
#208 = ORIENTED_EDGE ( 'NONE', *, *, #183, .T. ) ;
#209 = ADVANCED_FACE ( 'NONE', ( #1 ), #166, .T. ) ;
#210 = CYLINDRICAL_SURFACE ( 'NONE', #225, 2.000000000000000000 ) ;
#211 = CIRCLE ( 'NONE', #232, 1.600000000000000089 ) ;
#212 = VERTEX_POINT ( 'NONE', #156 ) ;
#213 = DATE_TIME_ROLE ( 'creation_date' ) ;
#214 = PERSON_AND_ORGANIZATION ( #25, #86 ) ;
#215 = EDGE_CURVE ( 'NONE', #77, #77, #8, .T. ) ;
#216 = AXIS2_PLACEMENT_3D ( 'NONE', #148, #184, #207 ) ;
#217 = DIRECTION ( 'NONE',  ( 1.000000000000000000, 0.0000000000000000000, -3.614007241618351532E-15 ) ) ;
#218 = CC_DESIGN_PERSON_AND_ORGANIZATION_ASSIGNMENT ( #4, #23, ( #70 ) ) ;
#219 = DIRECTION ( 'NONE',  ( -3.491481338843133355E-15, 0.0000000000000000000, -1.000000000000000000 ) ) ;
#220 = DIRECTION ( 'NONE',  ( -3.491481338843133355E-15, 0.0000000000000000000, -1.000000000000000000 ) ) ;
#221 = APPROVAL_DATE_TIME ( #55, #45 ) ;
#222 = CARTESIAN_POINT ( 'NONE',  ( 0.6681483474218675722, 0.0000000000000000000, 2.317638090205026646 ) ) ;
#223 = ORIENTED_EDGE ( 'NONE', *, *, #167, .T. ) ;
#224 = CARTESIAN_POINT ( 'NONE',  ( 6.284666409917640040E-15, -1.951563910473907242E-16, 1.800000000000000044 ) ) ;
#225 = AXIS2_PLACEMENT_3D ( 'NONE', #38, #16, #186 ) ;
#226 = COORDINATED_UNIVERSAL_TIME_OFFSET ( 1, 0, .AHEAD. ) ;
#227 = PERSON_AND_ORGANIZATION ( #25, #86 ) ;
#228 = CC_DESIGN_DATE_AND_TIME_ASSIGNMENT ( #83, #213, ( #70 ) ) ;
#229 = AXIS2_PLACEMENT_3D ( 'NONE', #233, #197, #202 ) ;
#230 = PLANE ( 'NONE',  #134 ) ;
#231 = DIRECTION ( 'NONE',  ( 3.491481338843133355E-15, -0.0000000000000000000, 1.000000000000000000 ) ) ;
#232 = AXIS2_PLACEMENT_3D ( 'NONE', #164, #206, #146 ) ;
#233 = CARTESIAN_POINT ( 'NONE',  ( 2.544653093733272676E-14, 0.0000000000000000000, 7.288176125771354208 ) ) ;
#234 = ORIENTED_EDGE ( 'NONE', *, *, #3, .T. ) ;
#235 = CARTESIAN_POINT ( 'NONE',  ( 8.091990142142896420E-15, 0.0000000000000000000, 2.317638090205028867 ) ) ;
#236 =( NAMED_UNIT ( * ) SI_UNIT ( $, .STERADIAN. ) SOLID_ANGLE_UNIT ( ) );
#237 = EDGE_LOOP ( 'NONE', ( #105 ) ) ;
#238 = DIRECTION ( 'NONE',  ( -1.000000000000000000, 0.0000000000000000000, 3.491481338843133355E-15 ) ) ;
#239 = FACE_OUTER_BOUND ( 'NONE', #124, .T. ) ;
#240 = PRODUCT_RELATED_PRODUCT_CATEGORY ( 'detail', '', ( #68 ) ) ;
#241 = APPROVAL_ROLE ( '' ) ;
#242 =( NAMED_UNIT ( * ) PLANE_ANGLE_UNIT ( ) SI_UNIT ( $, .RADIAN. ) );
#243 = EDGE_LOOP ( 'NONE', ( #208 ) ) ;
ENDSEC;
END-ISO-10303-21;
