ISO-10303-21;
HEADER;
FILE_DESCRIPTION (( 'STEP AP203' ),
    '1' );
FILE_NAME ('334863.step',
    '2021-11-09T06:47:08',
    ( '' ),
    ( '' ),
    'SwSTEP 2.0',
    'SolidWorks 2019',
    '' );
FILE_SCHEMA (( 'CONFIG_CONTROL_DESIGN' ));
ENDSEC;

DATA;
#1 = PERSON_AND_ORGANIZATION ( #239, #142 ) ;
#2 = CC_DESIGN_DATE_AND_TIME_ASSIGNMENT ( #107, #236, ( #92 ) ) ;
#3 = ORIENTED_EDGE ( 'NONE', *, *, #127, .T. ) ;
#4 = FACE_OUTER_BOUND ( 'NONE', #39, .T. ) ;
#5 = DIRECTION ( 'NONE',  ( 1.000000000000000000, 0.0000000000000000000, -3.548298019043467945E-15 ) ) ;
#6 = CLOSED_SHELL ( 'NONE', ( #182, #31, #20, #218, #130, #114 ) ) ;
#7 = PERSON_AND_ORGANIZATION_ROLE ( 'creator' ) ;
#8 = DIRECTION ( 'NONE',  ( -3.491481338843133355E-15, 0.0000000000000000000, -1.000000000000000000 ) ) ;
#9 = EDGE_LOOP ( 'NONE', ( #60 ) ) ;
#10 = PERSON_AND_ORGANIZATION_ROLE ( 'design_supplier' ) ;
#11 = SHAPE_DEFINITION_REPRESENTATION ( #53, #198 ) ;
#12 = APPROVAL_PERSON_ORGANIZATION ( #133, #59, #148 ) ;
#13 = APPROVAL ( #232, 'UNSPECIFIED' ) ;
#14 = CARTESIAN_POINT ( 'NONE',  ( 5.760944209091170036E-15, -1.788933584601082070E-16, 1.649999999999999911 ) ) ;
#15 = EDGE_LOOP ( 'NONE', ( #132 ) ) ;
#16 = EDGE_LOOP ( 'NONE', ( #129 ) ) ;
#17 = DIRECTION ( 'NONE',  ( 1.000000000000000000, 0.0000000000000000000, -3.469446951953614189E-15 ) ) ;
#18 = DIRECTION ( 'NONE',  ( 3.491481338843133355E-15, -0.0000000000000000000, 1.000000000000000000 ) ) ;
#19 = AXIS2_PLACEMENT_3D ( 'NONE', #23, #170, #5 ) ;
#20 = ADVANCED_FACE ( 'NONE', ( #135 ), #155, .T. ) ;
#21 = APPROVAL_DATE_TIME ( #187, #59 ) ;
#22 = MECHANICAL_CONTEXT ( 'NONE', #240, 'mechanical' ) ;
#23 = CARTESIAN_POINT ( 'NONE',  ( 5.760944209091169247E-15, 0.0000000000000000000, 1.649999999999999689 ) ) ;
#24 = VERTEX_POINT ( 'NONE', #28 ) ;
#25 = DIRECTION ( 'NONE',  ( 3.491481338843133355E-15, -0.0000000000000000000, 1.000000000000000000 ) ) ;
#26 = FACE_OUTER_BOUND ( 'NONE', #225, .T. ) ;
#27 = CIRCLE ( 'NONE', #61, 0.5500000000000001554 ) ;
#28 = CARTESIAN_POINT ( 'NONE',  ( 0.5500000000000059286, 0.0000000000000000000, 1.649999999999997913 ) ) ;
#29 = CC_DESIGN_APPROVAL ( #149, ( #92 ) ) ;
#30 = DIRECTION ( 'NONE',  ( 3.491481338843133355E-15, -0.0000000000000000000, 1.000000000000000000 ) ) ;
#31 = ADVANCED_FACE ( 'NONE', ( #89, #158 ), #209, .T. ) ;
#32 = AXIS2_PLACEMENT_3D ( 'NONE', #70, #117, #137 ) ;
#33 = AXIS2_PLACEMENT_3D ( 'NONE', #121, #30, #191 ) ;
#34 = LOCAL_TIME ( 7, 47, 8.000000000000000000, #43 ) ;
#35 = DIRECTION ( 'NONE',  ( 1.000000000000000000, 0.0000000000000000000, -3.491481338843133355E-15 ) ) ;
#36 = APPLICATION_CONTEXT ( 'configuration controlled 3d designs of mechanical parts and assemblies' ) ;
#37 = CIRCLE ( 'NONE', #172, 0.5500000000000001554 ) ;
#38 = APPROVAL_PERSON_ORGANIZATION ( #179, #149, #200 ) ;
#39 = EDGE_LOOP ( 'NONE', ( #3 ) ) ;
#40 = ORIENTED_EDGE ( 'NONE', *, *, #176, .F. ) ;
#41 = DIRECTION ( 'NONE',  ( 1.000000000000000000, 0.0000000000000000000, 0.0000000000000000000 ) ) ;
#42 = ADVANCED_FACE ( 'NONE', ( #188 ), #47, .T. ) ;
#43 = COORDINATED_UNIVERSAL_TIME_OFFSET ( 1, 0, .AHEAD. ) ;
#44 = LOCAL_TIME ( 7, 47, 8.000000000000000000, #48 ) ;
#45 = CARTESIAN_POINT ( 'NONE',  ( 1.600000000000132871, 0.0000000000000000000, 37.99999999999999289 ) ) ;
#46 = ORIENTED_EDGE ( 'NONE', *, *, #176, .T. ) ;
#47 = PLANE ( 'NONE',  #180 ) ;
#48 = COORDINATED_UNIVERSAL_TIME_OFFSET ( 1, 0, .AHEAD. ) ;
#49 = CYLINDRICAL_SURFACE ( 'NONE', #32, 0.5500000000000001554 ) ;
#50 = APPROVAL_DATE_TIME ( #138, #13 ) ;
#51 = DIRECTION ( 'NONE',  ( 3.491481338843133355E-15, -0.0000000000000000000, 1.000000000000000000 ) ) ;
#52 = CC_DESIGN_PERSON_AND_ORGANIZATION_ASSIGNMENT ( #1, #7, ( #96 ) ) ;
#53 = PRODUCT_DEFINITION_SHAPE ( 'NONE', 'NONE',  #96 ) ;
#54 = CC_DESIGN_APPROVAL ( #59, ( #96 ) ) ;
#55 = DIRECTION ( 'NONE',  ( -3.491481338843133355E-15, 0.0000000000000000000, -1.000000000000000000 ) ) ;
#56 = CARTESIAN_POINT ( 'NONE',  ( 5.760944209091170036E-15, -1.788933584601082070E-16, 1.649999999999999911 ) ) ;
#57 = PRODUCT ( '334863', '334863', '', ( #22 ) ) ;
#58 = AXIS2_PLACEMENT_3D ( 'NONE', #152, #243, #146 ) ;
#59 = APPROVAL ( #171, 'UNSPECIFIED' ) ;
#60 = ORIENTED_EDGE ( 'NONE', *, *, #159, .T. ) ;
#61 = AXIS2_PLACEMENT_3D ( 'NONE', #150, #25, #136 ) ;
#62 = ORIENTED_EDGE ( 'NONE', *, *, #75, .F. ) ;
#63 = APPLICATION_PROTOCOL_DEFINITION ( 'international standard', 'config_control_design', 1994, #36 ) ;
#64 = CARTESIAN_POINT ( 'NONE',  ( 0.5500000000000001554, 0.0000000000000000000, -1.920315017957124110E-15 ) ) ;
#65 = CARTESIAN_POINT ( 'NONE',  ( 2.557432802401832683E-14, 0.0000000000000000000, 7.324778666149800443 ) ) ;
#66 = PERSON_AND_ORGANIZATION ( #239, #142 ) ;
#67 = AXIS2_PLACEMENT_3D ( 'NONE', #14, #241, #144 ) ;
#68 = ORIENTED_EDGE ( 'NONE', *, *, #127, .F. ) ;
#69 = DIRECTION ( 'NONE',  ( 1.000000000000000000, 0.0000000000000000000, -3.491481338843133750E-15 ) ) ;
#70 = CARTESIAN_POINT ( 'NONE',  ( 0.0000000000000000000, 0.0000000000000000000, 0.0000000000000000000 ) ) ;
#71 = CARTESIAN_POINT ( 'NONE',  ( 0.5500000000000059286, 0.0000000000000000000, 1.649999999999997913 ) ) ;
#72 = EDGE_LOOP ( 'NONE', ( #230 ) ) ;
#73 = TOROIDAL_SURFACE ( 'NONE', #203, 2.549999999999999822, 2.000000000000000000 ) ;
#74 = SECURITY_CLASSIFICATION_LEVEL ( 'unclassified' ) ;
#75 = EDGE_CURVE ( 'NONE', #189, #189, #141, .T. ) ;
#76 = CALENDAR_DATE ( 2021, 9, 11 ) ;
#77 = ADVANCED_FACE ( 'NONE', ( #195, #231 ), #49, .T. ) ;
#78 = FACE_OUTER_BOUND ( 'NONE', #104, .T. ) ;
#79 = DIRECTION ( 'NONE',  ( 0.0000000000000000000, 0.0000000000000000000, 1.000000000000000000 ) ) ;
#80 = DIRECTION ( 'NONE',  ( 3.491481338843133355E-15, -0.0000000000000000000, 1.000000000000000000 ) ) ;
#81 = CIRCLE ( 'NONE', #33, 0.6181483474218597562 ) ;
#82 = COORDINATED_UNIVERSAL_TIME_OFFSET ( 1, 0, .AHEAD. ) ;
#83 = CALENDAR_DATE ( 2021, 9, 11 ) ;
#84 = EDGE_LOOP ( 'NONE', ( #68 ) ) ;
#85 = CC_DESIGN_SECURITY_CLASSIFICATION ( #92, ( #122 ) ) ;
#86 = VERTEX_POINT ( 'NONE', #210 ) ;
#87 = DIRECTION ( 'NONE',  ( 1.000000000000000000, 0.0000000000000000000, -3.548298019043467945E-15 ) ) ;
#88 = DIRECTION ( 'NONE',  ( -3.491481338843133355E-15, 0.0000000000000000000, -1.000000000000000000 ) ) ;
#89 = FACE_OUTER_BOUND ( 'NONE', #9, .T. ) ;
#90 = EDGE_CURVE ( 'NONE', #131, #131, #81, .T. ) ;
#91 = APPROVAL_DATE_TIME ( #143, #149 ) ;
#92 = SECURITY_CLASSIFICATION ( '', '', #74 ) ;
#93 = CALENDAR_DATE ( 2021, 9, 11 ) ;
#94 = AXIS2_PLACEMENT_3D ( 'NONE', #139, #217, #35 ) ;
#95 =( GEOMETRIC_REPRESENTATION_CONTEXT ( 3 ) GLOBAL_UNCERTAINTY_ASSIGNED_CONTEXT ( ( #162 ) ) GLOBAL_UNIT_ASSIGNED_CONTEXT ( ( #100, #167, #228 ) ) REPRESENTATION_CONTEXT ( 'NONE', 'WORKASPACE' ) );
#96 = PRODUCT_DEFINITION ( 'UNKNOWN', '', #122, #223 ) ;
#97 = EDGE_LOOP ( 'NONE', ( #227 ) ) ;
#98 = DIRECTION ( 'NONE',  ( 3.491481338843133355E-15, -0.0000000000000000000, 1.000000000000000000 ) ) ;
#99 = CIRCLE ( 'NONE', #186, 1.600000000000000089 ) ;
#100 =( LENGTH_UNIT ( ) NAMED_UNIT ( * ) SI_UNIT ( .MILLI., .METRE. ) );
#101 = CC_DESIGN_PERSON_AND_ORGANIZATION_ASSIGNMENT ( #126, #125, ( #122 ) ) ;
#102 = DIRECTION ( 'NONE',  ( -1.000000000000000000, 0.0000000000000000000, 4.336808689942017736E-15 ) ) ;
#103 = CIRCLE ( 'NONE', #58, 2.000000000000000000 ) ;
#104 = EDGE_LOOP ( 'NONE', ( #205 ) ) ;
#105 = DIRECTION ( 'NONE',  ( 3.491481338843133355E-15, -0.0000000000000000000, 1.000000000000000000 ) ) ;
#106 = AXIS2_PLACEMENT_3D ( 'NONE', #157, #8, #102 ) ;
#107 = DATE_AND_TIME ( #93, #221 ) ;
#108 = AXIS2_PLACEMENT_3D ( 'NONE', #65, #190, #17 ) ;
#109 = PRODUCT_RELATED_PRODUCT_CATEGORY ( 'detail', '', ( #57 ) ) ;
#110 = CIRCLE ( 'NONE', #242, 2.000000000000000000 ) ;
#111 = EDGE_LOOP ( 'NONE', ( #168 ) ) ;
#112 = APPLICATION_PROTOCOL_DEFINITION ( 'international standard', 'config_control_design', 1994, #240 ) ;
#113 = CALENDAR_DATE ( 2021, 9, 11 ) ;
#114 = ADVANCED_FACE ( 'NONE', ( #26 ), #123, .T. ) ;
#115 = CARTESIAN_POINT ( 'NONE',  ( 1.326762908760390423E-13, 0.0000000000000000000, 38.00000000000000000 ) ) ;
#116 = PERSON_AND_ORGANIZATION ( #239, #142 ) ;
#117 = DIRECTION ( 'NONE',  ( 3.491481338843133355E-15, -0.0000000000000000000, 1.000000000000000000 ) ) ;
#118 = CARTESIAN_POINT ( 'NONE',  ( 0.6181483474218673058, 0.0000000000000000000, 2.167638090205026735 ) ) ;
#119 = CYLINDRICAL_SURFACE ( 'NONE', #94, 2.000000000000000000 ) ;
#120 = LOCAL_TIME ( 7, 47, 8.000000000000000000, #177 ) ;
#121 = CARTESIAN_POINT ( 'NONE',  ( 7.568267941316426417E-15, 0.0000000000000000000, 2.167638090205028512 ) ) ;
#122 = PRODUCT_DEFINITION_FORMATION_WITH_SPECIFIED_SOURCE ( 'ANY', '', #57, .NOT_KNOWN. ) ;
#123 = PLANE ( 'NONE',  #67 ) ;
#124 = PERSON_AND_ORGANIZATION ( #239, #142 ) ;
#125 = PERSON_AND_ORGANIZATION_ROLE ( 'creator' ) ;
#126 = PERSON_AND_ORGANIZATION ( #239, #142 ) ;
#127 = EDGE_CURVE ( 'NONE', #165, #165, #103, .T. ) ;
#128 = FACE_OUTER_BOUND ( 'NONE', #72, .T. ) ;
#129 = ORIENTED_EDGE ( 'NONE', *, *, #90, .F. ) ;
#130 = ADVANCED_FACE ( 'NONE', ( #134, #185 ), #214, .T. ) ;
#131 = VERTEX_POINT ( 'NONE', #118 ) ;
#132 = ORIENTED_EDGE ( 'NONE', *, *, #229, .T. ) ;
#133 = PERSON_AND_ORGANIZATION ( #239, #142 ) ;
#134 = FACE_BOUND ( 'NONE', #208, .T. ) ;
#135 = FACE_OUTER_BOUND ( 'NONE', #15, .T. ) ;
#136 = DIRECTION ( 'NONE',  ( 1.000000000000000000, 0.0000000000000000000, -3.491481338843133750E-15 ) ) ;
#137 = DIRECTION ( 'NONE',  ( 1.000000000000000000, 0.0000000000000000000, -3.491481338843133750E-15 ) ) ;
#138 = DATE_AND_TIME ( #199, #44 ) ;
#139 = CARTESIAN_POINT ( 'NONE',  ( 0.0000000000000000000, 0.0000000000000000000, 0.0000000000000000000 ) ) ;
#140 = CC_DESIGN_DATE_AND_TIME_ASSIGNMENT ( #156, #151, ( #96 ) ) ;
#141 = CIRCLE ( 'NONE', #19, 0.5500000000000001554 ) ;
#142 = ORGANIZATION ( 'UNSPECIFIED', 'UNSPECIFIED', '' ) ;
#143 = DATE_AND_TIME ( #76, #120 ) ;
#144 = DIRECTION ( 'NONE',  ( -1.000000000000000000, 0.0000000000000000000, 3.491481338843133355E-15 ) ) ;
#145 = DIRECTION ( 'NONE',  ( 1.000000000000000000, 0.0000000000000000000, -4.336808689942017736E-15 ) ) ;
#146 = DIRECTION ( 'NONE',  ( 1.000000000000000000, 0.0000000000000000000, -3.469446951953614189E-15 ) ) ;
#147 = MANIFOLD_SOLID_BREP ( 'Corps-Déplacer/Copier1[2]', #206 ) ;
#148 = APPROVAL_ROLE ( '' ) ;
#149 = APPROVAL ( #197, 'UNSPECIFIED' ) ;
#150 = CARTESIAN_POINT ( 'NONE',  ( -9.831781012932406109E-37, 0.0000000000000000000, -2.815934000148506281E-22 ) ) ;
#151 = DATE_TIME_ROLE ( 'creation_date' ) ;
#152 = CARTESIAN_POINT ( 'NONE',  ( 2.557432802401832683E-14, 0.0000000000000000000, 7.324778666149800443 ) ) ;
#153 = FACE_OUTER_BOUND ( 'NONE', #161, .T. ) ;
#154 = VERTEX_POINT ( 'NONE', #45 ) ;
#155 = PLANE ( 'NONE',  #184 ) ;
#156 = DATE_AND_TIME ( #83, #194 ) ;
#157 = CARTESIAN_POINT ( 'NONE',  ( 1.326762908760390423E-13, 0.0000000000000000000, 38.00000000000000000 ) ) ;
#158 = FACE_BOUND ( 'NONE', #97, .T. ) ;
#159 = EDGE_CURVE ( 'NONE', #86, #86, #110, .T. ) ;
#160 = FACE_OUTER_BOUND ( 'NONE', #16, .T. ) ;
#161 = EDGE_LOOP ( 'NONE', ( #220 ) ) ;
#162 = UNCERTAINTY_MEASURE_WITH_UNIT (LENGTH_MEASURE( 1.000000000000000082E-05 ), #100, 'distance_accuracy_value', 'NONE');
#163 = CARTESIAN_POINT ( 'NONE',  ( 1.312796983405018142E-13, 0.0000000000000000000, 37.60000000000000142 ) ) ;
#164 = EDGE_CURVE ( 'NONE', #24, #24, #37, .T. ) ;
#165 = VERTEX_POINT ( 'NONE', #192 ) ;
#166 = AXIS2_PLACEMENT_3D ( 'NONE', #207, #79, #41 ) ;
#167 =( NAMED_UNIT ( * ) PLANE_ANGLE_UNIT ( ) SI_UNIT ( $, .RADIAN. ) );
#168 = ORIENTED_EDGE ( 'NONE', *, *, #164, .F. ) ;
#169 = CARTESIAN_POINT ( 'NONE',  ( 1.326762908760390423E-13, 0.0000000000000000000, 38.00000000000000000 ) ) ;
#170 = DIRECTION ( 'NONE',  ( 3.491481338843133355E-15, -0.0000000000000000000, 1.000000000000000000 ) ) ;
#171 = APPROVAL_STATUS ( 'not_yet_approved' ) ;
#172 = AXIS2_PLACEMENT_3D ( 'NONE', #237, #51, #87 ) ;
#173 = DIRECTION ( 'NONE',  ( 1.000000000000000000, 0.0000000000000000000, -3.491481338843133355E-15 ) ) ;
#174 = CARTESIAN_POINT ( 'NONE',  ( 5.760944209091170036E-15, 0.0000000000000000000, 1.649999999999999911 ) ) ;
#175 = EDGE_LOOP ( 'NONE', ( #46 ) ) ;
#176 = EDGE_CURVE ( 'NONE', #226, #226, #27, .T. ) ;
#177 = COORDINATED_UNIVERSAL_TIME_OFFSET ( 1, 0, .AHEAD. ) ;
#178 = CC_DESIGN_APPROVAL ( #13, ( #122 ) ) ;
#179 = PERSON_AND_ORGANIZATION ( #239, #142 ) ;
#180 = AXIS2_PLACEMENT_3D ( 'NONE', #213, #88, #233 ) ;
#181 = APPROVAL_PERSON_ORGANIZATION ( #66, #13, #212 ) ;
#182 = ADVANCED_FACE ( 'NONE', ( #153, #4 ), #119, .T. ) ;
#183 = EDGE_LOOP ( 'NONE', ( #40 ) ) ;
#184 = AXIS2_PLACEMENT_3D ( 'NONE', #115, #105, #173 ) ;
#185 = FACE_OUTER_BOUND ( 'NONE', #84, .T. ) ;
#186 = AXIS2_PLACEMENT_3D ( 'NONE', #169, #98, #145 ) ;
#187 = DATE_AND_TIME ( #113, #34 ) ;
#188 = FACE_OUTER_BOUND ( 'NONE', #183, .T. ) ;
#189 = VERTEX_POINT ( 'NONE', #71 ) ;
#190 = DIRECTION ( 'NONE',  ( 3.491481338843133355E-15, -0.0000000000000000000, 1.000000000000000000 ) ) ;
#191 = DIRECTION ( 'NONE',  ( 1.000000000000000000, 0.0000000000000000000, -3.507902842440450416E-15 ) ) ;
#192 = CARTESIAN_POINT ( 'NONE',  ( 2.000000000000025757, 0.0000000000000000000, 7.324778666149794226 ) ) ;
#193 = AXIS2_PLACEMENT_3D ( 'NONE', #56, #55, #202 ) ;
#194 = LOCAL_TIME ( 7, 47, 8.000000000000000000, #82 ) ;
#195 = FACE_OUTER_BOUND ( 'NONE', #175, .T. ) ;
#196 = CC_DESIGN_PERSON_AND_ORGANIZATION_ASSIGNMENT ( #216, #10, ( #122 ) ) ;
#197 = APPROVAL_STATUS ( 'not_yet_approved' ) ;
#198 = ADVANCED_BREP_SHAPE_REPRESENTATION ( '334863', ( #235, #147, #166 ), #95 ) ;
#199 = CALENDAR_DATE ( 2021, 9, 11 ) ;
#200 = APPROVAL_ROLE ( '' ) ;
#201 = COORDINATED_UNIVERSAL_TIME_OFFSET ( 1, 0, .AHEAD. ) ;
#202 = DIRECTION ( 'NONE',  ( -1.000000000000000000, 0.0000000000000000000, 3.491481338843133355E-15 ) ) ;
#203 = AXIS2_PLACEMENT_3D ( 'NONE', #174, #18, #69 ) ;
#204 = ADVANCED_FACE ( 'NONE', ( #78 ), #219, .F. ) ;
#205 = ORIENTED_EDGE ( 'NONE', *, *, #164, .T. ) ;
#206 = CLOSED_SHELL ( 'NONE', ( #42, #77, #204 ) ) ;
#207 = CARTESIAN_POINT ( 'NONE',  ( 0.0000000000000000000, 0.0000000000000000000, 0.0000000000000000000 ) ) ;
#208 = EDGE_LOOP ( 'NONE', ( #211 ) ) ;
#209 = CONICAL_SURFACE ( 'NONE', #106, 1.600000000000000089, 0.7853981633974512766 ) ;
#210 = CARTESIAN_POINT ( 'NONE',  ( 2.000000000000131450, 0.0000000000000000000, 37.59999999999999432 ) ) ;
#211 = ORIENTED_EDGE ( 'NONE', *, *, #90, .T. ) ;
#212 = APPROVAL_ROLE ( '' ) ;
#213 = CARTESIAN_POINT ( 'NONE',  ( -4.915890506466203054E-37, 0.0000000000000000000, -1.407967000074253141E-22 ) ) ;
#214 = CONICAL_SURFACE ( 'NONE', #108, 2.000000000000000000, 0.2617993877991428575 ) ;
#215 = CC_DESIGN_PERSON_AND_ORGANIZATION_ASSIGNMENT ( #124, #234, ( #92 ) ) ;
#216 = PERSON_AND_ORGANIZATION ( #239, #142 ) ;
#217 = DIRECTION ( 'NONE',  ( 3.491481338843133355E-15, -0.0000000000000000000, 1.000000000000000000 ) ) ;
#218 = ADVANCED_FACE ( 'NONE', ( #128, #160 ), #73, .F. ) ;
#219 = PLANE ( 'NONE',  #193 ) ;
#220 = ORIENTED_EDGE ( 'NONE', *, *, #159, .F. ) ;
#221 = LOCAL_TIME ( 7, 47, 8.000000000000000000, #201 ) ;
#222 = PERSON_AND_ORGANIZATION_ROLE ( 'design_owner' ) ;
#223 = DESIGN_CONTEXT ( 'detailed design', #36, 'design' ) ;
#224 = DIRECTION ( 'NONE',  ( 1.000000000000000000, 0.0000000000000000000, -3.469446951953614189E-15 ) ) ;
#225 = EDGE_LOOP ( 'NONE', ( #62 ) ) ;
#226 = VERTEX_POINT ( 'NONE', #64 ) ;
#227 = ORIENTED_EDGE ( 'NONE', *, *, #229, .F. ) ;
#228 =( NAMED_UNIT ( * ) SI_UNIT ( $, .STERADIAN. ) SOLID_ANGLE_UNIT ( ) );
#229 = EDGE_CURVE ( 'NONE', #154, #154, #99, .T. ) ;
#230 = ORIENTED_EDGE ( 'NONE', *, *, #75, .T. ) ;
#231 = FACE_OUTER_BOUND ( 'NONE', #111, .T. ) ;
#232 = APPROVAL_STATUS ( 'not_yet_approved' ) ;
#233 = DIRECTION ( 'NONE',  ( -1.000000000000000000, 0.0000000000000000000, 3.491481338843133355E-15 ) ) ;
#234 = PERSON_AND_ORGANIZATION_ROLE ( 'classification_officer' ) ;
#235 = MANIFOLD_SOLID_BREP ( 'Corps-Déplacer/Copier1[1]', #6 ) ;
#236 = DATE_TIME_ROLE ( 'classification_date' ) ;
#237 = CARTESIAN_POINT ( 'NONE',  ( 5.760944209091169247E-15, 0.0000000000000000000, 1.649999999999999689 ) ) ;
#238 = CC_DESIGN_PERSON_AND_ORGANIZATION_ASSIGNMENT ( #116, #222, ( #57 ) ) ;
#239 = PERSON ( 'UNSPECIFIED', 'UNSPECIFIED', 'UNSPECIFIED', ('UNSPECIFIED'), ('UNSPECIFIED'), ('UNSPECIFIED') ) ;
#240 = APPLICATION_CONTEXT ( 'configuration controlled 3d designs of mechanical parts and assemblies' ) ;
#241 = DIRECTION ( 'NONE',  ( -3.491481338843133355E-15, 0.0000000000000000000, -1.000000000000000000 ) ) ;
#242 = AXIS2_PLACEMENT_3D ( 'NONE', #163, #80, #224 ) ;
#243 = DIRECTION ( 'NONE',  ( 3.491481338843133355E-15, -0.0000000000000000000, 1.000000000000000000 ) ) ;
ENDSEC;
END-ISO-10303-21;
