ISO-10303-21;
HEADER;
FILE_DESCRIPTION (( 'STEP AP203' ),
    '1' );
FILE_NAME ('334862.step',
    '2021-11-09T06:47:08',
    ( '' ),
    ( '' ),
    'SwSTEP 2.0',
    'SolidWorks 2019',
    '' );
FILE_SCHEMA (( 'CONFIG_CONTROL_DESIGN' ));
ENDSEC;

DATA;
#1 = PERSON_AND_ORGANIZATION ( #117, #70 ) ;
#2 = ADVANCED_FACE ( 'NONE', ( #82, #106 ), #156, .T. ) ;
#3 = APPROVAL_ROLE ( '' ) ;
#4 = APPROVAL_DATE_TIME ( #134, #200 ) ;
#5 = ORIENTED_EDGE ( 'NONE', *, *, #46, .F. ) ;
#6 = ORIENTED_EDGE ( 'NONE', *, *, #64, .T. ) ;
#7 = AXIS2_PLACEMENT_3D ( 'NONE', #160, #237, #31 ) ;
#8 = CARTESIAN_POINT ( 'NONE',  ( 0.0000000000000000000, 0.0000000000000000000, 0.0000000000000000000 ) ) ;
#9 = CIRCLE ( 'NONE', #198, 0.5000000000000000000 ) ;
#10 = EDGE_LOOP ( 'NONE', ( #22 ) ) ;
#11 = CONICAL_SURFACE ( 'NONE', #39, 2.000000000000000000, 0.2617993877991428575 ) ;
#12 = DIRECTION ( 'NONE',  ( 1.000000000000000000, 0.0000000000000000000, -3.469446951953614189E-15 ) ) ;
#13 = DIRECTION ( 'NONE',  ( 1.000000000000000000, 0.0000000000000000000, -3.491481338843133355E-15 ) ) ;
#14 = APPROVAL ( #132, 'UNSPECIFIED' ) ;
#15 = DIRECTION ( 'NONE',  ( 3.491481338843133355E-15, -0.0000000000000000000, 1.000000000000000000 ) ) ;
#16 = LOCAL_TIME ( 7, 47, 8.000000000000000000, #167 ) ;
#17 = CARTESIAN_POINT ( 'NONE',  ( 5.237222008264700033E-15, 0.0000000000000000000, 1.500000000000000000 ) ) ;
#18 = APPROVAL_DATE_TIME ( #215, #14 ) ;
#19 = DATE_AND_TIME ( #152, #148 ) ;
#20 = DIRECTION ( 'NONE',  ( 1.000000000000000000, 0.0000000000000000000, 0.0000000000000000000 ) ) ;
#21 = PERSON_AND_ORGANIZATION ( #117, #70 ) ;
#22 = ORIENTED_EDGE ( 'NONE', *, *, #168, .T. ) ;
#23 = CIRCLE ( 'NONE', #169, 2.000000000000000000 ) ;
#24 = APPLICATION_CONTEXT ( 'configuration controlled 3d designs of mechanical parts and assemblies' ) ;
#25 = FACE_OUTER_BOUND ( 'NONE', #100, .T. ) ;
#26 = DIRECTION ( 'NONE',  ( 1.000000000000000000, 0.0000000000000000000, -3.491481338843133355E-15 ) ) ;
#27 = CARTESIAN_POINT ( 'NONE',  ( 2.570212511070392691E-14, 0.0000000000000000000, 7.361381206528247567 ) ) ;
#28 = PRODUCT_RELATED_PRODUCT_CATEGORY ( 'detail', '', ( #154 ) ) ;
#29 = CARTESIAN_POINT ( 'NONE',  ( 1.312796983405018142E-13, 0.0000000000000000000, 37.60000000000000142 ) ) ;
#30 = PRODUCT_DEFINITION_SHAPE ( 'NONE', 'NONE',  #179 ) ;
#31 = DIRECTION ( 'NONE',  ( 1.000000000000000000, 0.0000000000000000000, -3.491481338843133355E-15 ) ) ;
#32 = FACE_BOUND ( 'NONE', #48, .T. ) ;
#33 = CALENDAR_DATE ( 2021, 9, 11 ) ;
#34 = APPROVAL_STATUS ( 'not_yet_approved' ) ;
#35 = PERSON_AND_ORGANIZATION ( #117, #70 ) ;
#36 = ADVANCED_FACE ( 'NONE', ( #62 ), #136, .T. ) ;
#37 = PERSON_AND_ORGANIZATION ( #117, #70 ) ;
#38 = PERSON_AND_ORGANIZATION ( #117, #70 ) ;
#39 = AXIS2_PLACEMENT_3D ( 'NONE', #140, #165, #71 ) ;
#40 =( GEOMETRIC_REPRESENTATION_CONTEXT ( 3 ) GLOBAL_UNCERTAINTY_ASSIGNED_CONTEXT ( ( #104 ) ) GLOBAL_UNIT_ASSIGNED_CONTEXT ( ( #146, #172, #76 ) ) REPRESENTATION_CONTEXT ( 'NONE', 'WORKASPACE' ) );
#41 = EDGE_LOOP ( 'NONE', ( #180 ) ) ;
#42 = CLOSED_SHELL ( 'NONE', ( #57, #2, #65 ) ) ;
#43 = MANIFOLD_SOLID_BREP ( 'Corps-Déplacer/Copier1[1]', #107 ) ;
#44 = LOCAL_TIME ( 7, 47, 8.000000000000000000, #97 ) ;
#45 = DIRECTION ( 'NONE',  ( -3.491481338843133355E-15, 0.0000000000000000000, -1.000000000000000000 ) ) ;
#46 = EDGE_CURVE ( 'NONE', #92, #92, #219, .T. ) ;
#47 = EDGE_LOOP ( 'NONE', ( #103 ) ) ;
#48 = EDGE_LOOP ( 'NONE', ( #5 ) ) ;
#49 = CARTESIAN_POINT ( 'NONE',  ( 1.600000000000132871, 0.0000000000000000000, 37.99999999999999289 ) ) ;
#50 = PLANE ( 'NONE',  #181 ) ;
#51 = FACE_OUTER_BOUND ( 'NONE', #182, .T. ) ;
#52 = CIRCLE ( 'NONE', #166, 2.000000000000000000 ) ;
#53 = CARTESIAN_POINT ( 'NONE',  ( 5.237222008264699244E-15, 0.0000000000000000000, 1.499999999999999778 ) ) ;
#54 = CONICAL_SURFACE ( 'NONE', #60, 1.600000000000000089, 0.7853981633974512766 ) ;
#55 = PERSON_AND_ORGANIZATION ( #117, #70 ) ;
#56 = CARTESIAN_POINT ( 'NONE',  ( 2.000000000000025757, 0.0000000000000000000, 7.361381206528240462 ) ) ;
#57 = ADVANCED_FACE ( 'NONE', ( #25 ), #50, .T. ) ;
#58 = APPLICATION_PROTOCOL_DEFINITION ( 'international standard', 'config_control_design', 1994, #214 ) ;
#59 = DATE_AND_TIME ( #75, #16 ) ;
#60 = AXIS2_PLACEMENT_3D ( 'NONE', #189, #190, #143 ) ;
#61 = EDGE_LOOP ( 'NONE', ( #88 ) ) ;
#62 = FACE_OUTER_BOUND ( 'NONE', #177, .T. ) ;
#63 = ORIENTED_EDGE ( 'NONE', *, *, #118, .F. ) ;
#64 = EDGE_CURVE ( 'NONE', #164, #164, #204, .T. ) ;
#65 = ADVANCED_FACE ( 'NONE', ( #225 ), #90, .F. ) ;
#66 = CARTESIAN_POINT ( 'NONE',  ( 1.326762908760390423E-13, 0.0000000000000000000, 38.00000000000000000 ) ) ;
#67 = EDGE_LOOP ( 'NONE', ( #6 ) ) ;
#68 = DIRECTION ( 'NONE',  ( -3.491481338843133355E-15, 0.0000000000000000000, -1.000000000000000000 ) ) ;
#69 = CARTESIAN_POINT ( 'NONE',  ( 0.5000000000000052180, 0.0000000000000000000, 1.499999999999998002 ) ) ;
#70 = ORGANIZATION ( 'UNSPECIFIED', 'UNSPECIFIED', '' ) ;
#71 = DIRECTION ( 'NONE',  ( 1.000000000000000000, 0.0000000000000000000, -3.469446951953614189E-15 ) ) ;
#72 = CARTESIAN_POINT ( 'NONE',  ( 2.000000000000131450, 0.0000000000000000000, 37.59999999999999432 ) ) ;
#73 = AXIS2_PLACEMENT_3D ( 'NONE', #144, #208, #229 ) ;
#74 = DIRECTION ( 'NONE',  ( 3.491481338843133355E-15, -0.0000000000000000000, 1.000000000000000000 ) ) ;
#75 = CALENDAR_DATE ( 2021, 9, 11 ) ;
#76 =( NAMED_UNIT ( * ) SI_UNIT ( $, .STERADIAN. ) SOLID_ANGLE_UNIT ( ) );
#77 = CC_DESIGN_DATE_AND_TIME_ASSIGNMENT ( #59, #145, ( #98 ) ) ;
#78 = CARTESIAN_POINT ( 'NONE',  ( 0.0000000000000000000, 0.0000000000000000000, 0.0000000000000000000 ) ) ;
#79 = CC_DESIGN_APPROVAL ( #200, ( #98 ) ) ;
#80 = PERSON_AND_ORGANIZATION ( #117, #70 ) ;
#81 = APPROVAL_PERSON_ORGANIZATION ( #21, #14, #195 ) ;
#82 = FACE_OUTER_BOUND ( 'NONE', #47, .T. ) ;
#83 = EDGE_CURVE ( 'NONE', #241, #241, #52, .T. ) ;
#84 = CC_DESIGN_PERSON_AND_ORGANIZATION_ASSIGNMENT ( #94, #243, ( #159 ) ) ;
#85 = EDGE_LOOP ( 'NONE', ( #217 ) ) ;
#86 = ORIENTED_EDGE ( 'NONE', *, *, #83, .T. ) ;
#87 = AXIS2_PLACEMENT_3D ( 'NONE', #66, #139, #221 ) ;
#88 = ORIENTED_EDGE ( 'NONE', *, *, #64, .F. ) ;
#89 = DIRECTION ( 'NONE',  ( -1.000000000000000000, 0.0000000000000000000, 3.491481338843133355E-15 ) ) ;
#90 = PLANE ( 'NONE',  #128 ) ;
#91 = FACE_OUTER_BOUND ( 'NONE', #85, .T. ) ;
#92 = VERTEX_POINT ( 'NONE', #49 ) ;
#93 = FACE_OUTER_BOUND ( 'NONE', #222, .T. ) ;
#94 = PERSON_AND_ORGANIZATION ( #117, #70 ) ;
#95 = CARTESIAN_POINT ( 'NONE',  ( 0.5000000000000000000, 0.0000000000000000000, -1.745740951014966654E-15 ) ) ;
#96 = AXIS2_PLACEMENT_3D ( 'NONE', #8, #234, #138 ) ;
#97 = COORDINATED_UNIVERSAL_TIME_OFFSET ( 1, 0, .AHEAD. ) ;
#98 = SECURITY_CLASSIFICATION ( '', '', #231 ) ;
#99 = PERSON_AND_ORGANIZATION_ROLE ( 'classification_officer' ) ;
#100 = EDGE_LOOP ( 'NONE', ( #105 ) ) ;
#101 = ADVANCED_FACE ( 'NONE', ( #141, #163 ), #11, .T. ) ;
#102 = APPROVAL_PERSON_ORGANIZATION ( #55, #200, #175 ) ;
#103 = ORIENTED_EDGE ( 'NONE', *, *, #183, .T. ) ;
#104 = UNCERTAINTY_MEASURE_WITH_UNIT (LENGTH_MEASURE( 1.000000000000000082E-05 ), #146, 'distance_accuracy_value', 'NONE');
#105 = ORIENTED_EDGE ( 'NONE', *, *, #183, .F. ) ;
#106 = FACE_OUTER_BOUND ( 'NONE', #235, .T. ) ;
#107 = CLOSED_SHELL ( 'NONE', ( #149, #209, #206, #228, #101, #36 ) ) ;
#108 = DIRECTION ( 'NONE',  ( 1.000000000000000000, 0.0000000000000000000, -3.469446951953614189E-15 ) ) ;
#109 = DIRECTION ( 'NONE',  ( 3.491481338843133355E-15, -0.0000000000000000000, 1.000000000000000000 ) ) ;
#110 = DIRECTION ( 'NONE',  ( 1.000000000000000000, 0.0000000000000000000, -3.469446951953614189E-15 ) ) ;
#111 = CC_DESIGN_PERSON_AND_ORGANIZATION_ASSIGNMENT ( #38, #147, ( #179 ) ) ;
#112 = DIRECTION ( 'NONE',  ( 3.491481338843133355E-15, -0.0000000000000000000, 1.000000000000000000 ) ) ;
#113 = LOCAL_TIME ( 7, 47, 8.000000000000000000, #116 ) ;
#114 = CARTESIAN_POINT ( 'NONE',  ( 0.5000000000000052180, 0.0000000000000000000, 1.499999999999998002 ) ) ;
#115 = CIRCLE ( 'NONE', #153, 0.5000000000000000000 ) ;
#116 = COORDINATED_UNIVERSAL_TIME_OFFSET ( 1, 0, .AHEAD. ) ;
#117 = PERSON ( 'UNSPECIFIED', 'UNSPECIFIED', 'UNSPECIFIED', ('UNSPECIFIED'), ('UNSPECIFIED'), ('UNSPECIFIED') ) ;
#118 = EDGE_CURVE ( 'NONE', #227, #227, #226, .T. ) ;
#119 = SHAPE_DEFINITION_REPRESENTATION ( #30, #137 ) ;
#120 = AXIS2_PLACEMENT_3D ( 'NONE', #78, #130, #20 ) ;
#121 = DIRECTION ( 'NONE',  ( -1.000000000000000000, 0.0000000000000000000, 3.491481338843133355E-15 ) ) ;
#122 = FACE_OUTER_BOUND ( 'NONE', #41, .T. ) ;
#123 = DIRECTION ( 'NONE',  ( 3.491481338843133355E-15, -0.0000000000000000000, 1.000000000000000000 ) ) ;
#124 = CARTESIAN_POINT ( 'NONE',  ( 7.044545740489957203E-15, 0.0000000000000000000, 2.017638090205028600 ) ) ;
#125 = MANIFOLD_SOLID_BREP ( 'Corps-Déplacer/Copier1[2]', #42 ) ;
#126 = CC_DESIGN_PERSON_AND_ORGANIZATION_ASSIGNMENT ( #37, #191, ( #159 ) ) ;
#127 = PLANE ( 'NONE',  #7 ) ;
#128 = AXIS2_PLACEMENT_3D ( 'NONE', #202, #68, #89 ) ;
#129 = DIRECTION ( 'NONE',  ( 1.000000000000000000, 0.0000000000000000000, -3.816616478444019910E-15 ) ) ;
#130 = DIRECTION ( 'NONE',  ( 0.0000000000000000000, 0.0000000000000000000, 1.000000000000000000 ) ) ;
#131 = PERSON_AND_ORGANIZATION_ROLE ( 'design_owner' ) ;
#132 = APPROVAL_STATUS ( 'not_yet_approved' ) ;
#133 = COORDINATED_UNIVERSAL_TIME_OFFSET ( 1, 0, .AHEAD. ) ;
#134 = DATE_AND_TIME ( #155, #188 ) ;
#135 = ORIENTED_EDGE ( 'NONE', *, *, #194, .F. ) ;
#136 = PLANE ( 'NONE',  #186 ) ;
#137 = ADVANCED_BREP_SHAPE_REPRESENTATION ( '334862', ( #43, #125, #120 ), #40 ) ;
#138 = DIRECTION ( 'NONE',  ( 1.000000000000000000, 0.0000000000000000000, -3.491481338843133355E-15 ) ) ;
#139 = DIRECTION ( 'NONE',  ( 3.491481338843133355E-15, -0.0000000000000000000, 1.000000000000000000 ) ) ;
#140 = CARTESIAN_POINT ( 'NONE',  ( 2.570212511070392691E-14, 0.0000000000000000000, 7.361381206528247567 ) ) ;
#141 = FACE_BOUND ( 'NONE', #67, .T. ) ;
#142 = DIRECTION ( 'NONE',  ( 3.491481338843133355E-15, -0.0000000000000000000, 1.000000000000000000 ) ) ;
#143 = DIRECTION ( 'NONE',  ( -1.000000000000000000, 0.0000000000000000000, 4.336808689942017736E-15 ) ) ;
#144 = CARTESIAN_POINT ( 'NONE',  ( 5.237222008264699244E-15, 0.0000000000000000000, 1.499999999999999778 ) ) ;
#145 = DATE_TIME_ROLE ( 'classification_date' ) ;
#146 =( LENGTH_UNIT ( ) NAMED_UNIT ( * ) SI_UNIT ( .MILLI., .METRE. ) );
#147 = PERSON_AND_ORGANIZATION_ROLE ( 'creator' ) ;
#148 = LOCAL_TIME ( 7, 47, 8.000000000000000000, #133 ) ;
#149 = ADVANCED_FACE ( 'NONE', ( #91, #122 ), #187, .T. ) ;
#150 = CC_DESIGN_APPROVAL ( #171, ( #179 ) ) ;
#151 = CALENDAR_DATE ( 2021, 9, 11 ) ;
#152 = CALENDAR_DATE ( 2021, 9, 11 ) ;
#153 = AXIS2_PLACEMENT_3D ( 'NONE', #184, #142, #205 ) ;
#154 = PRODUCT ( '334862', '334862', '', ( #192 ) ) ;
#155 = CALENDAR_DATE ( 2021, 9, 11 ) ;
#156 = CYLINDRICAL_SURFACE ( 'NONE', #96, 0.5000000000000000000 ) ;
#157 = DESIGN_CONTEXT ( 'detailed design', #24, 'design' ) ;
#158 = ORIENTED_EDGE ( 'NONE', *, *, #46, .T. ) ;
#159 = PRODUCT_DEFINITION_FORMATION_WITH_SPECIFIED_SOURCE ( 'ANY', '', #154, .NOT_KNOWN. ) ;
#160 = CARTESIAN_POINT ( 'NONE',  ( 1.326762908760390423E-13, 0.0000000000000000000, 38.00000000000000000 ) ) ;
#161 = CC_DESIGN_DATE_AND_TIME_ASSIGNMENT ( #174, #230, ( #179 ) ) ;
#162 = CARTESIAN_POINT ( 'NONE',  ( 0.5681483474218670393, 0.0000000000000000000, 2.017638090205026380 ) ) ;
#163 = FACE_OUTER_BOUND ( 'NONE', #176, .T. ) ;
#164 = VERTEX_POINT ( 'NONE', #162 ) ;
#165 = DIRECTION ( 'NONE',  ( 3.491481338843133355E-15, -0.0000000000000000000, 1.000000000000000000 ) ) ;
#166 = AXIS2_PLACEMENT_3D ( 'NONE', #29, #74, #110 ) ;
#167 = COORDINATED_UNIVERSAL_TIME_OFFSET ( 1, 0, .AHEAD. ) ;
#168 = EDGE_CURVE ( 'NONE', #238, #238, #9, .T. ) ;
#169 = AXIS2_PLACEMENT_3D ( 'NONE', #27, #112, #12 ) ;
#170 = VERTEX_POINT ( 'NONE', #56 ) ;
#171 = APPROVAL ( #34, 'UNSPECIFIED' ) ;
#172 =( NAMED_UNIT ( * ) PLANE_ANGLE_UNIT ( ) SI_UNIT ( $, .RADIAN. ) );
#173 = CC_DESIGN_APPROVAL ( #14, ( #159 ) ) ;
#174 = DATE_AND_TIME ( #33, #113 ) ;
#175 = APPROVAL_ROLE ( '' ) ;
#176 = EDGE_LOOP ( 'NONE', ( #135 ) ) ;
#177 = EDGE_LOOP ( 'NONE', ( #63 ) ) ;
#178 = ORIENTED_EDGE ( 'NONE', *, *, #118, .T. ) ;
#179 = PRODUCT_DEFINITION ( 'UNKNOWN', '', #159, #157 ) ;
#180 = ORIENTED_EDGE ( 'NONE', *, *, #194, .T. ) ;
#181 = AXIS2_PLACEMENT_3D ( 'NONE', #242, #224, #239 ) ;
#182 = EDGE_LOOP ( 'NONE', ( #158 ) ) ;
#183 = EDGE_CURVE ( 'NONE', #216, #216, #115, .T. ) ;
#184 = CARTESIAN_POINT ( 'NONE',  ( -9.831781012932406109E-37, 0.0000000000000000000, -2.815934000148506281E-22 ) ) ;
#185 = FACE_OUTER_BOUND ( 'NONE', #199, .T. ) ;
#186 = AXIS2_PLACEMENT_3D ( 'NONE', #220, #45, #121 ) ;
#187 = CYLINDRICAL_SURFACE ( 'NONE', #210, 2.000000000000000000 ) ;
#188 = LOCAL_TIME ( 7, 47, 8.000000000000000000, #232 ) ;
#189 = CARTESIAN_POINT ( 'NONE',  ( 1.326762908760390423E-13, 0.0000000000000000000, 38.00000000000000000 ) ) ;
#190 = DIRECTION ( 'NONE',  ( -3.491481338843133355E-15, 0.0000000000000000000, -1.000000000000000000 ) ) ;
#191 = PERSON_AND_ORGANIZATION_ROLE ( 'creator' ) ;
#192 = MECHANICAL_CONTEXT ( 'NONE', #214, 'mechanical' ) ;
#193 = TOROIDAL_SURFACE ( 'NONE', #213, 2.500000000000000000, 2.000000000000000000 ) ;
#194 = EDGE_CURVE ( 'NONE', #170, #170, #23, .T. ) ;
#195 = APPROVAL_ROLE ( '' ) ;
#196 = APPROVAL_DATE_TIME ( #19, #171 ) ;
#197 = ORIENTED_EDGE ( 'NONE', *, *, #168, .F. ) ;
#198 = AXIS2_PLACEMENT_3D ( 'NONE', #53, #109, #108 ) ;
#199 = EDGE_LOOP ( 'NONE', ( #86 ) ) ;
#200 = APPROVAL ( #211, 'UNSPECIFIED' ) ;
#201 = CARTESIAN_POINT ( 'NONE',  ( 0.0000000000000000000, 0.0000000000000000000, 0.0000000000000000000 ) ) ;
#202 = CARTESIAN_POINT ( 'NONE',  ( 5.237222008264700033E-15, -1.626303258728256404E-16, 1.500000000000000000 ) ) ;
#203 = DIRECTION ( 'NONE',  ( 3.491481338843133355E-15, -0.0000000000000000000, 1.000000000000000000 ) ) ;
#204 = CIRCLE ( 'NONE', #236, 0.5681483474218600449 ) ;
#205 = DIRECTION ( 'NONE',  ( 1.000000000000000000, 0.0000000000000000000, -3.491481338843133355E-15 ) ) ;
#206 = ADVANCED_FACE ( 'NONE', ( #51 ), #127, .T. ) ;
#207 = CC_DESIGN_SECURITY_CLASSIFICATION ( #98, ( #159 ) ) ;
#208 = DIRECTION ( 'NONE',  ( 3.491481338843133355E-15, -0.0000000000000000000, 1.000000000000000000 ) ) ;
#209 = ADVANCED_FACE ( 'NONE', ( #185, #32 ), #54, .T. ) ;
#210 = AXIS2_PLACEMENT_3D ( 'NONE', #201, #15, #26 ) ;
#211 = APPROVAL_STATUS ( 'not_yet_approved' ) ;
#212 = APPLICATION_PROTOCOL_DEFINITION ( 'international standard', 'config_control_design', 1994, #24 ) ;
#213 = AXIS2_PLACEMENT_3D ( 'NONE', #17, #123, #13 ) ;
#214 = APPLICATION_CONTEXT ( 'configuration controlled 3d designs of mechanical parts and assemblies' ) ;
#215 = DATE_AND_TIME ( #151, #44 ) ;
#216 = VERTEX_POINT ( 'NONE', #95 ) ;
#217 = ORIENTED_EDGE ( 'NONE', *, *, #83, .F. ) ;
#218 = CC_DESIGN_PERSON_AND_ORGANIZATION_ASSIGNMENT ( #1, #131, ( #154 ) ) ;
#219 = CIRCLE ( 'NONE', #87, 1.600000000000000089 ) ;
#220 = CARTESIAN_POINT ( 'NONE',  ( 5.237222008264700033E-15, -1.626303258728256404E-16, 1.500000000000000000 ) ) ;
#221 = DIRECTION ( 'NONE',  ( 1.000000000000000000, 0.0000000000000000000, -4.336808689942017736E-15 ) ) ;
#222 = EDGE_LOOP ( 'NONE', ( #178 ) ) ;
#223 = FACE_OUTER_BOUND ( 'NONE', #61, .T. ) ;
#224 = DIRECTION ( 'NONE',  ( -3.491481338843133355E-15, 0.0000000000000000000, -1.000000000000000000 ) ) ;
#225 = FACE_OUTER_BOUND ( 'NONE', #10, .T. ) ;
#226 = CIRCLE ( 'NONE', #73, 0.5000000000000000000 ) ;
#227 = VERTEX_POINT ( 'NONE', #114 ) ;
#228 = ADVANCED_FACE ( 'NONE', ( #93, #223 ), #193, .F. ) ;
#229 = DIRECTION ( 'NONE',  ( 1.000000000000000000, 0.0000000000000000000, -3.469446951953614189E-15 ) ) ;
#230 = DATE_TIME_ROLE ( 'creation_date' ) ;
#231 = SECURITY_CLASSIFICATION_LEVEL ( 'unclassified' ) ;
#232 = COORDINATED_UNIVERSAL_TIME_OFFSET ( 1, 0, .AHEAD. ) ;
#233 = APPROVAL_PERSON_ORGANIZATION ( #35, #171, #3 ) ;
#234 = DIRECTION ( 'NONE',  ( 3.491481338843133355E-15, -0.0000000000000000000, 1.000000000000000000 ) ) ;
#235 = EDGE_LOOP ( 'NONE', ( #197 ) ) ;
#236 = AXIS2_PLACEMENT_3D ( 'NONE', #124, #203, #129 ) ;
#237 = DIRECTION ( 'NONE',  ( 3.491481338843133355E-15, -0.0000000000000000000, 1.000000000000000000 ) ) ;
#238 = VERTEX_POINT ( 'NONE', #69 ) ;
#239 = DIRECTION ( 'NONE',  ( -1.000000000000000000, 0.0000000000000000000, 3.491481338843133355E-15 ) ) ;
#240 = CC_DESIGN_PERSON_AND_ORGANIZATION_ASSIGNMENT ( #80, #99, ( #98 ) ) ;
#241 = VERTEX_POINT ( 'NONE', #72 ) ;
#242 = CARTESIAN_POINT ( 'NONE',  ( -4.915890506466203054E-37, 0.0000000000000000000, -1.407967000074253141E-22 ) ) ;
#243 = PERSON_AND_ORGANIZATION_ROLE ( 'design_supplier' ) ;
ENDSEC;
END-ISO-10303-21;
