ISO-10303-21;
HEADER;
FILE_DESCRIPTION (( 'STEP AP203' ),
    '1' );
FILE_NAME ('334861.step',
    '2021-11-09T06:47:07',
    ( '' ),
    ( '' ),
    'SwSTEP 2.0',
    'SolidWorks 2019',
    '' );
FILE_SCHEMA (( 'CONFIG_CONTROL_DESIGN' ));
ENDSEC;

DATA;
#1 = PERSON_AND_ORGANIZATION ( #179, #159 ) ;
#2 = DIRECTION ( 'NONE',  ( 1.000000000000000000, 0.0000000000000000000, -3.469446951953614189E-15 ) ) ;
#3 = FACE_OUTER_BOUND ( 'NONE', #60, .T. ) ;
#4 = FACE_BOUND ( 'NONE', #6, .T. ) ;
#5 = PERSON_AND_ORGANIZATION ( #179, #159 ) ;
#6 = EDGE_LOOP ( 'NONE', ( #236 ) ) ;
#7 = DATE_AND_TIME ( #121, #198 ) ;
#8 = EDGE_LOOP ( 'NONE', ( #98 ) ) ;
#9 = EDGE_LOOP ( 'NONE', ( #150 ) ) ;
#10 = AXIS2_PLACEMENT_3D ( 'NONE', #235, #57, #143 ) ;
#11 = APPROVAL_PERSON_ORGANIZATION ( #1, #215, #131 ) ;
#12 = CONICAL_SURFACE ( 'NONE', #114, 2.000000000000000000, 0.2617993877991428575 ) ;
#13 = CYLINDRICAL_SURFACE ( 'NONE', #190, 0.4499999999999999001 ) ;
#14 = PLANE ( 'NONE',  #160 ) ;
#15 = DIRECTION ( 'NONE',  ( -3.491481338843133355E-15, 0.0000000000000000000, -1.000000000000000000 ) ) ;
#16 = PERSON_AND_ORGANIZATION ( #179, #159 ) ;
#17 = DIRECTION ( 'NONE',  ( 1.000000000000000000, 0.0000000000000000000, -3.469446951953614189E-15 ) ) ;
#18 = DIRECTION ( 'NONE',  ( 3.491481338843133355E-15, -0.0000000000000000000, 1.000000000000000000 ) ) ;
#19 = PERSON_AND_ORGANIZATION ( #179, #159 ) ;
#20 = APPROVAL_STATUS ( 'not_yet_approved' ) ;
#21 = FACE_OUTER_BOUND ( 'NONE', #8, .T. ) ;
#22 = ADVANCED_FACE ( 'NONE', ( #21 ), #171, .T. ) ;
#23 = DIRECTION ( 'NONE',  ( 1.000000000000000000, 0.0000000000000000000, 0.0000000000000000000 ) ) ;
#24 = PERSON_AND_ORGANIZATION ( #179, #159 ) ;
#25 = ORIENTED_EDGE ( 'NONE', *, *, #152, .F. ) ;
#26 = CIRCLE ( 'NONE', #65, 2.000000000000000000 ) ;
#27 = APPROVAL ( #193, 'UNSPECIFIED' ) ;
#28 = AXIS2_PLACEMENT_3D ( 'NONE', #242, #18, #48 ) ;
#29 = ADVANCED_FACE ( 'NONE', ( #81, #4 ), #135, .T. ) ;
#30 = DIRECTION ( 'NONE',  ( 3.491481338843133355E-15, -0.0000000000000000000, 1.000000000000000000 ) ) ;
#31 = DIRECTION ( 'NONE',  ( 1.000000000000000000, 0.0000000000000000000, -3.491481338843133355E-15 ) ) ;
#32 = DIRECTION ( 'NONE',  ( 3.491481338843133355E-15, -0.0000000000000000000, 1.000000000000000000 ) ) ;
#33 =( NAMED_UNIT ( * ) PLANE_ANGLE_UNIT ( ) SI_UNIT ( $, .RADIAN. ) );
#34 = DIRECTION ( 'NONE',  ( 1.000000000000000000, 0.0000000000000000000, -3.491481338843133355E-15 ) ) ;
#35 = COORDINATED_UNIVERSAL_TIME_OFFSET ( 1, 0, .AHEAD. ) ;
#36 = FACE_OUTER_BOUND ( 'NONE', #115, .T. ) ;
#37 = CALENDAR_DATE ( 2021, 9, 11 ) ;
#38 = TOROIDAL_SURFACE ( 'NONE', #128, 2.450000000000000178, 2.000000000000000000 ) ;
#39 = CC_DESIGN_APPROVAL ( #27, ( #218 ) ) ;
#40 = EDGE_LOOP ( 'NONE', ( #194 ) ) ;
#41 = CARTESIAN_POINT ( 'NONE',  ( 0.4500000000000046185, 0.0000000000000000000, 1.349999999999998312 ) ) ;
#42 = ORIENTED_EDGE ( 'NONE', *, *, #220, .T. ) ;
#43 = EDGE_LOOP ( 'NONE', ( #156 ) ) ;
#44 = AXIS2_PLACEMENT_3D ( 'NONE', #85, #105, #161 ) ;
#45 =( GEOMETRIC_REPRESENTATION_CONTEXT ( 3 ) GLOBAL_UNCERTAINTY_ASSIGNED_CONTEXT ( ( #117 ) ) GLOBAL_UNIT_ASSIGNED_CONTEXT ( ( #202, #33, #170 ) ) REPRESENTATION_CONTEXT ( 'NONE', 'WORKASPACE' ) );
#46 = AXIS2_PLACEMENT_3D ( 'NONE', #52, #188, #34 ) ;
#47 = DIRECTION ( 'NONE',  ( 1.000000000000000000, 0.0000000000000000000, -3.347928222888741460E-15 ) ) ;
#48 = DIRECTION ( 'NONE',  ( 1.000000000000000000, 0.0000000000000000000, -3.373073425510458853E-15 ) ) ;
#49 = FACE_OUTER_BOUND ( 'NONE', #191, .T. ) ;
#50 = CALENDAR_DATE ( 2021, 9, 11 ) ;
#51 = CIRCLE ( 'NONE', #239, 2.000000000000000000 ) ;
#52 = CARTESIAN_POINT ( 'NONE',  ( -9.831781012932406109E-37, 0.0000000000000000000, -2.815934000148506281E-22 ) ) ;
#53 = VERTEX_POINT ( 'NONE', #186 ) ;
#54 = PERSON_AND_ORGANIZATION_ROLE ( 'design_owner' ) ;
#55 = VERTEX_POINT ( 'NONE', #206 ) ;
#56 = CC_DESIGN_SECURITY_CLASSIFICATION ( #218, ( #163 ) ) ;
#57 = DIRECTION ( 'NONE',  ( -3.491481338843133355E-15, 0.0000000000000000000, -1.000000000000000000 ) ) ;
#58 = CALENDAR_DATE ( 2021, 9, 11 ) ;
#59 = APPROVAL_DATE_TIME ( #7, #27 ) ;
#60 = EDGE_LOOP ( 'NONE', ( #118 ) ) ;
#61 = CC_DESIGN_APPROVAL ( #123, ( #164 ) ) ;
#62 = CC_DESIGN_PERSON_AND_ORGANIZATION_ASSIGNMENT ( #233, #54, ( #214 ) ) ;
#63 = EDGE_CURVE ( 'NONE', #149, #149, #51, .T. ) ;
#64 = CARTESIAN_POINT ( 'NONE',  ( 2.582992219738953330E-14, 0.0000000000000000000, 7.397983746906696467 ) ) ;
#65 = AXIS2_PLACEMENT_3D ( 'NONE', #108, #147, #2 ) ;
#66 = LOCAL_TIME ( 7, 47, 7.000000000000000000, #195 ) ;
#67 = DIRECTION ( 'NONE',  ( -1.000000000000000000, 0.0000000000000000000, 3.491481338843133355E-15 ) ) ;
#68 = APPROVAL_DATE_TIME ( #97, #215 ) ;
#69 = DIRECTION ( 'NONE',  ( 3.491481338843133355E-15, -0.0000000000000000000, 1.000000000000000000 ) ) ;
#70 = PERSON_AND_ORGANIZATION_ROLE ( 'design_supplier' ) ;
#71 = FACE_OUTER_BOUND ( 'NONE', #43, .T. ) ;
#72 = ADVANCED_FACE ( 'NONE', ( #36, #199 ), #38, .F. ) ;
#73 = CARTESIAN_POINT ( 'NONE',  ( 0.0000000000000000000, 0.0000000000000000000, 0.0000000000000000000 ) ) ;
#74 = CC_DESIGN_APPROVAL ( #215, ( #163 ) ) ;
#75 = DIRECTION ( 'NONE',  ( 1.000000000000000000, 0.0000000000000000000, -3.469446951953614189E-15 ) ) ;
#76 = ORIENTED_EDGE ( 'NONE', *, *, #77, .F. ) ;
#77 = EDGE_CURVE ( 'NONE', #53, #53, #112, .T. ) ;
#78 = DATE_TIME_ROLE ( 'creation_date' ) ;
#79 = DIRECTION ( 'NONE',  ( -3.491481338843133355E-15, 0.0000000000000000000, -1.000000000000000000 ) ) ;
#80 = CARTESIAN_POINT ( 'NONE',  ( 4.713499807438230818E-15, -1.463672932855430739E-16, 1.350000000000000089 ) ) ;
#81 = FACE_OUTER_BOUND ( 'NONE', #119, .T. ) ;
#82 = CC_DESIGN_DATE_AND_TIME_ASSIGNMENT ( #192, #78, ( #164 ) ) ;
#83 = CC_DESIGN_PERSON_AND_ORGANIZATION_ASSIGNMENT ( #227, #196, ( #218 ) ) ;
#84 = CIRCLE ( 'NONE', #158, 0.4499999999999999001 ) ;
#85 = CARTESIAN_POINT ( 'NONE',  ( 1.326762908760390423E-13, 0.0000000000000000000, 38.00000000000000000 ) ) ;
#86 = FACE_OUTER_BOUND ( 'NONE', #9, .T. ) ;
#87 = CARTESIAN_POINT ( 'NONE',  ( 6.520823539663486410E-15, 0.0000000000000000000, 1.867638090205028689 ) ) ;
#88 = PERSON_AND_ORGANIZATION_ROLE ( 'creator' ) ;
#89 = CARTESIAN_POINT ( 'NONE',  ( 4.713499807438230818E-15, -1.463672932855430739E-16, 1.350000000000000089 ) ) ;
#90 = APPLICATION_PROTOCOL_DEFINITION ( 'international standard', 'config_control_design', 1994, #94 ) ;
#91 = DIRECTION ( 'NONE',  ( 3.491481338843133355E-15, -0.0000000000000000000, 1.000000000000000000 ) ) ;
#92 = AXIS2_PLACEMENT_3D ( 'NONE', #87, #107, #47 ) ;
#93 = CALENDAR_DATE ( 2021, 9, 11 ) ;
#94 = APPLICATION_CONTEXT ( 'configuration controlled 3d designs of mechanical parts and assemblies' ) ;
#95 = LOCAL_TIME ( 7, 47, 7.000000000000000000, #166 ) ;
#96 = ORIENTED_EDGE ( 'NONE', *, *, #180, .T. ) ;
#97 = DATE_AND_TIME ( #93, #241 ) ;
#98 = ORIENTED_EDGE ( 'NONE', *, *, #138, .F. ) ;
#99 = APPROVAL_ROLE ( '' ) ;
#100 = AXIS2_PLACEMENT_3D ( 'NONE', #80, #79, #153 ) ;
#101 = ORIENTED_EDGE ( 'NONE', *, *, #152, .T. ) ;
#102 = APPROVAL_ROLE ( '' ) ;
#103 = DESIGN_CONTEXT ( 'detailed design', #94, 'design' ) ;
#104 = CLOSED_SHELL ( 'NONE', ( #178, #142, #136 ) ) ;
#105 = DIRECTION ( 'NONE',  ( 3.491481338843133355E-15, -0.0000000000000000000, 1.000000000000000000 ) ) ;
#106 = ADVANCED_FACE ( 'NONE', ( #204 ), #145, .T. ) ;
#107 = DIRECTION ( 'NONE',  ( 3.491481338843133355E-15, -0.0000000000000000000, 1.000000000000000000 ) ) ;
#108 = CARTESIAN_POINT ( 'NONE',  ( 1.312796983405018142E-13, 0.0000000000000000000, 37.60000000000000142 ) ) ;
#109 = CARTESIAN_POINT ( 'NONE',  ( 1.600000000000132871, 0.0000000000000000000, 37.99999999999999289 ) ) ;
#110 = CARTESIAN_POINT ( 'NONE',  ( -4.915890506466203054E-37, 0.0000000000000000000, -1.407967000074253141E-22 ) ) ;
#111 = CC_DESIGN_PERSON_AND_ORGANIZATION_ASSIGNMENT ( #5, #70, ( #163 ) ) ;
#112 = CIRCLE ( 'NONE', #92, 0.5181483474218603336 ) ;
#113 = VERTEX_POINT ( 'NONE', #109 ) ;
#114 = AXIS2_PLACEMENT_3D ( 'NONE', #127, #32, #75 ) ;
#115 = EDGE_LOOP ( 'NONE', ( #137 ) ) ;
#116 = PERSON_AND_ORGANIZATION ( #179, #159 ) ;
#117 = UNCERTAINTY_MEASURE_WITH_UNIT (LENGTH_MEASURE( 1.000000000000000082E-05 ), #202, 'distance_accuracy_value', 'NONE');
#118 = ORIENTED_EDGE ( 'NONE', *, *, #63, .F. ) ;
#119 = EDGE_LOOP ( 'NONE', ( #101 ) ) ;
#120 = APPROVAL_PERSON_ORGANIZATION ( #19, #123, #99 ) ;
#121 = CALENDAR_DATE ( 2021, 9, 11 ) ;
#122 = ADVANCED_BREP_SHAPE_REPRESENTATION ( '334861', ( #139, #221, #210 ), #45 ) ;
#123 = APPROVAL ( #211, 'UNSPECIFIED' ) ;
#124 = LOCAL_TIME ( 7, 47, 7.000000000000000000, #174 ) ;
#125 = DIRECTION ( 'NONE',  ( -1.000000000000000000, 0.0000000000000000000, 3.491481338843133355E-15 ) ) ;
#126 = FACE_OUTER_BOUND ( 'NONE', #173, .T. ) ;
#127 = CARTESIAN_POINT ( 'NONE',  ( 2.582992219738953330E-14, 0.0000000000000000000, 7.397983746906696467 ) ) ;
#128 = AXIS2_PLACEMENT_3D ( 'NONE', #140, #169, #165 ) ;
#129 = APPLICATION_PROTOCOL_DEFINITION ( 'international standard', 'config_control_design', 1994, #212 ) ;
#130 = CARTESIAN_POINT ( 'NONE',  ( 4.713499807438230030E-15, 0.0000000000000000000, 1.349999999999999867 ) ) ;
#131 = APPROVAL_ROLE ( '' ) ;
#132 = DIRECTION ( 'NONE',  ( 1.000000000000000000, 0.0000000000000000000, -3.373073425510458853E-15 ) ) ;
#133 = DATE_AND_TIME ( #50, #95 ) ;
#134 = EDGE_LOOP ( 'NONE', ( #176 ) ) ;
#135 = CONICAL_SURFACE ( 'NONE', #10, 1.600000000000000089, 0.7853981633974512766 ) ;
#136 = ADVANCED_FACE ( 'NONE', ( #49 ), #243, .F. ) ;
#137 = ORIENTED_EDGE ( 'NONE', *, *, #138, .T. ) ;
#138 = EDGE_CURVE ( 'NONE', #55, #55, #84, .T. ) ;
#139 = MANIFOLD_SOLID_BREP ( 'Corps-Déplacer/Copier1[1]', #175 ) ;
#140 = CARTESIAN_POINT ( 'NONE',  ( 4.713499807438230818E-15, 0.0000000000000000000, 1.350000000000000089 ) ) ;
#141 = APPROVAL_PERSON_ORGANIZATION ( #24, #27, #102 ) ;
#142 = ADVANCED_FACE ( 'NONE', ( #223, #167 ), #13, .T. ) ;
#143 = DIRECTION ( 'NONE',  ( -1.000000000000000000, 0.0000000000000000000, 4.336808689942017736E-15 ) ) ;
#144 = CARTESIAN_POINT ( 'NONE',  ( 0.4499999999999999001, 0.0000000000000000000, -1.571166884072809592E-15 ) ) ;
#145 = PLANE ( 'NONE',  #44 ) ;
#146 = SECURITY_CLASSIFICATION_LEVEL ( 'unclassified' ) ;
#147 = DIRECTION ( 'NONE',  ( 3.491481338843133355E-15, -0.0000000000000000000, 1.000000000000000000 ) ) ;
#148 = APPROVAL_DATE_TIME ( #133, #123 ) ;
#149 = VERTEX_POINT ( 'NONE', #232 ) ;
#150 = ORIENTED_EDGE ( 'NONE', *, *, #220, .F. ) ;
#151 = VERTEX_POINT ( 'NONE', #172 ) ;
#152 = EDGE_CURVE ( 'NONE', #151, #151, #26, .T. ) ;
#153 = DIRECTION ( 'NONE',  ( -1.000000000000000000, 0.0000000000000000000, 3.491481338843133355E-15 ) ) ;
#154 = CIRCLE ( 'NONE', #217, 1.600000000000000089 ) ;
#155 = SHAPE_DEFINITION_REPRESENTATION ( #231, #122 ) ;
#156 = ORIENTED_EDGE ( 'NONE', *, *, #63, .T. ) ;
#157 = DATE_TIME_ROLE ( 'classification_date' ) ;
#158 = AXIS2_PLACEMENT_3D ( 'NONE', #130, #183, #132 ) ;
#159 = ORGANIZATION ( 'UNSPECIFIED', 'UNSPECIFIED', '' ) ;
#160 = AXIS2_PLACEMENT_3D ( 'NONE', #110, #15, #67 ) ;
#161 = DIRECTION ( 'NONE',  ( 1.000000000000000000, 0.0000000000000000000, -3.491481338843133355E-15 ) ) ;
#162 = DIRECTION ( 'NONE',  ( 1.000000000000000000, 0.0000000000000000000, -4.336808689942017736E-15 ) ) ;
#163 = PRODUCT_DEFINITION_FORMATION_WITH_SPECIFIED_SOURCE ( 'ANY', '', #214, .NOT_KNOWN. ) ;
#164 = PRODUCT_DEFINITION ( 'UNKNOWN', '', #163, #103 ) ;
#165 = DIRECTION ( 'NONE',  ( 1.000000000000000000, 0.0000000000000000000, -3.491481338843133355E-15 ) ) ;
#166 = COORDINATED_UNIVERSAL_TIME_OFFSET ( 1, 0, .AHEAD. ) ;
#167 = FACE_OUTER_BOUND ( 'NONE', #40, .T. ) ;
#168 = VERTEX_POINT ( 'NONE', #144 ) ;
#169 = DIRECTION ( 'NONE',  ( 3.491481338843133355E-15, -0.0000000000000000000, 1.000000000000000000 ) ) ;
#170 =( NAMED_UNIT ( * ) SI_UNIT ( $, .STERADIAN. ) SOLID_ANGLE_UNIT ( ) );
#171 = PLANE ( 'NONE',  #100 ) ;
#172 = CARTESIAN_POINT ( 'NONE',  ( 2.000000000000131450, 0.0000000000000000000, 37.59999999999999432 ) ) ;
#173 = EDGE_LOOP ( 'NONE', ( #25 ) ) ;
#174 = COORDINATED_UNIVERSAL_TIME_OFFSET ( 1, 0, .AHEAD. ) ;
#175 = CLOSED_SHELL ( 'NONE', ( #197, #29, #106, #72, #222, #22 ) ) ;
#176 = ORIENTED_EDGE ( 'NONE', *, *, #77, .T. ) ;
#177 = COORDINATED_UNIVERSAL_TIME_OFFSET ( 1, 0, .AHEAD. ) ;
#178 = ADVANCED_FACE ( 'NONE', ( #86 ), #14, .T. ) ;
#179 = PERSON ( 'UNSPECIFIED', 'UNSPECIFIED', 'UNSPECIFIED', ('UNSPECIFIED'), ('UNSPECIFIED'), ('UNSPECIFIED') ) ;
#180 = EDGE_CURVE ( 'NONE', #113, #113, #154, .T. ) ;
#181 = EDGE_CURVE ( 'NONE', #230, #230, #240, .T. ) ;
#182 = PRODUCT_RELATED_PRODUCT_CATEGORY ( 'detail', '', ( #214 ) ) ;
#183 = DIRECTION ( 'NONE',  ( 3.491481338843133355E-15, -0.0000000000000000000, 1.000000000000000000 ) ) ;
#184 = AXIS2_PLACEMENT_3D ( 'NONE', #229, #69, #31 ) ;
#185 = CARTESIAN_POINT ( 'NONE',  ( 1.326762908760390423E-13, 0.0000000000000000000, 38.00000000000000000 ) ) ;
#186 = CARTESIAN_POINT ( 'NONE',  ( 0.5181483474218668839, 0.0000000000000000000, 1.867638090205027135 ) ) ;
#187 = DIRECTION ( 'NONE',  ( 3.491481338843133355E-15, -0.0000000000000000000, 1.000000000000000000 ) ) ;
#188 = DIRECTION ( 'NONE',  ( 3.491481338843133355E-15, -0.0000000000000000000, 1.000000000000000000 ) ) ;
#189 = EDGE_LOOP ( 'NONE', ( #42 ) ) ;
#190 = AXIS2_PLACEMENT_3D ( 'NONE', #205, #187, #207 ) ;
#191 = EDGE_LOOP ( 'NONE', ( #213 ) ) ;
#192 = DATE_AND_TIME ( #37, #124 ) ;
#193 = APPROVAL_STATUS ( 'not_yet_approved' ) ;
#194 = ORIENTED_EDGE ( 'NONE', *, *, #181, .F. ) ;
#195 = COORDINATED_UNIVERSAL_TIME_OFFSET ( 1, 0, .AHEAD. ) ;
#196 = PERSON_AND_ORGANIZATION_ROLE ( 'classification_officer' ) ;
#197 = ADVANCED_FACE ( 'NONE', ( #126, #71 ), #200, .T. ) ;
#198 = LOCAL_TIME ( 7, 47, 7.000000000000000000, #177 ) ;
#199 = FACE_OUTER_BOUND ( 'NONE', #237, .T. ) ;
#200 = CYLINDRICAL_SURFACE ( 'NONE', #184, 2.000000000000000000 ) ;
#201 = CC_DESIGN_PERSON_AND_ORGANIZATION_ASSIGNMENT ( #16, #88, ( #164 ) ) ;
#202 =( LENGTH_UNIT ( ) NAMED_UNIT ( * ) SI_UNIT ( .MILLI., .METRE. ) );
#203 = CC_DESIGN_DATE_AND_TIME_ASSIGNMENT ( #216, #157, ( #218 ) ) ;
#204 = FACE_OUTER_BOUND ( 'NONE', #209, .T. ) ;
#205 = CARTESIAN_POINT ( 'NONE',  ( 0.0000000000000000000, 0.0000000000000000000, 0.0000000000000000000 ) ) ;
#206 = CARTESIAN_POINT ( 'NONE',  ( 0.4500000000000046185, 0.0000000000000000000, 1.349999999999998312 ) ) ;
#207 = DIRECTION ( 'NONE',  ( 1.000000000000000000, 0.0000000000000000000, -3.491481338843133355E-15 ) ) ;
#208 = DIRECTION ( 'NONE',  ( 0.0000000000000000000, 0.0000000000000000000, 1.000000000000000000 ) ) ;
#209 = EDGE_LOOP ( 'NONE', ( #96 ) ) ;
#210 = AXIS2_PLACEMENT_3D ( 'NONE', #73, #208, #23 ) ;
#211 = APPROVAL_STATUS ( 'not_yet_approved' ) ;
#212 = APPLICATION_CONTEXT ( 'configuration controlled 3d designs of mechanical parts and assemblies' ) ;
#213 = ORIENTED_EDGE ( 'NONE', *, *, #181, .T. ) ;
#214 = PRODUCT ( '334861', '334861', '', ( #234 ) ) ;
#215 = APPROVAL ( #20, 'UNSPECIFIED' ) ;
#216 = DATE_AND_TIME ( #58, #66 ) ;
#217 = AXIS2_PLACEMENT_3D ( 'NONE', #185, #91, #162 ) ;
#218 = SECURITY_CLASSIFICATION ( '', '', #146 ) ;
#219 = DIRECTION ( 'NONE',  ( -3.491481338843133355E-15, 0.0000000000000000000, -1.000000000000000000 ) ) ;
#220 = EDGE_CURVE ( 'NONE', #168, #168, #228, .T. ) ;
#221 = MANIFOLD_SOLID_BREP ( 'Corps-Déplacer/Copier1[2]', #104 ) ;
#222 = ADVANCED_FACE ( 'NONE', ( #226, #3 ), #12, .T. ) ;
#223 = FACE_OUTER_BOUND ( 'NONE', #189, .T. ) ;
#224 = CC_DESIGN_PERSON_AND_ORGANIZATION_ASSIGNMENT ( #116, #225, ( #163 ) ) ;
#225 = PERSON_AND_ORGANIZATION_ROLE ( 'creator' ) ;
#226 = FACE_BOUND ( 'NONE', #134, .T. ) ;
#227 = PERSON_AND_ORGANIZATION ( #179, #159 ) ;
#228 = CIRCLE ( 'NONE', #46, 0.4499999999999999001 ) ;
#229 = CARTESIAN_POINT ( 'NONE',  ( 0.0000000000000000000, 0.0000000000000000000, 0.0000000000000000000 ) ) ;
#230 = VERTEX_POINT ( 'NONE', #41 ) ;
#231 = PRODUCT_DEFINITION_SHAPE ( 'NONE', 'NONE',  #164 ) ;
#232 = CARTESIAN_POINT ( 'NONE',  ( 2.000000000000026201, 0.0000000000000000000, 7.397983746906689362 ) ) ;
#233 = PERSON_AND_ORGANIZATION ( #179, #159 ) ;
#234 = MECHANICAL_CONTEXT ( 'NONE', #212, 'mechanical' ) ;
#235 = CARTESIAN_POINT ( 'NONE',  ( 1.326762908760390423E-13, 0.0000000000000000000, 38.00000000000000000 ) ) ;
#236 = ORIENTED_EDGE ( 'NONE', *, *, #180, .F. ) ;
#237 = EDGE_LOOP ( 'NONE', ( #76 ) ) ;
#238 = AXIS2_PLACEMENT_3D ( 'NONE', #89, #219, #125 ) ;
#239 = AXIS2_PLACEMENT_3D ( 'NONE', #64, #30, #17 ) ;
#240 = CIRCLE ( 'NONE', #28, 0.4499999999999999001 ) ;
#241 = LOCAL_TIME ( 7, 47, 7.000000000000000000, #35 ) ;
#242 = CARTESIAN_POINT ( 'NONE',  ( 4.713499807438230030E-15, 0.0000000000000000000, 1.349999999999999867 ) ) ;
#243 = PLANE ( 'NONE',  #238 ) ;
ENDSEC;
END-ISO-10303-21;
