ISO-10303-21;
HEADER;
FILE_DESCRIPTION (( 'STEP AP203' ),
    '1' );
FILE_NAME ('334860.step',
    '2021-11-09T06:47:07',
    ( '' ),
    ( '' ),
    'SwSTEP 2.0',
    'SolidWorks 2019',
    '' );
FILE_SCHEMA (( 'CONFIG_CONTROL_DESIGN' ));
ENDSEC;

DATA;
#1 = PLANE ( 'NONE',  #64 ) ;
#2 = ORIENTED_EDGE ( 'NONE', *, *, #191, .F. ) ;
#3 = CIRCLE ( 'NONE', #155, 2.000000000000000000 ) ;
#4 = AXIS2_PLACEMENT_3D ( 'NONE', #58, #19, #37 ) ;
#5 = CC_DESIGN_PERSON_AND_ORGANIZATION_ASSIGNMENT ( #142, #98, ( #95 ) ) ;
#6 = CALENDAR_DATE ( 2021, 9, 11 ) ;
#7 = ORIENTED_EDGE ( 'NONE', *, *, #240, .T. ) ;
#8 =( NAMED_UNIT ( * ) SI_UNIT ( $, .STERADIAN. ) SOLID_ANGLE_UNIT ( ) );
#9 = DIRECTION ( 'NONE',  ( 3.491481338843133355E-15, -0.0000000000000000000, 1.000000000000000000 ) ) ;
#10 = CARTESIAN_POINT ( 'NONE',  ( 1.312796983405018142E-13, 0.0000000000000000000, 37.60000000000000142 ) ) ;
#11 = CARTESIAN_POINT ( 'NONE',  ( 2.595771928407513653E-14, 0.0000000000000000000, 7.434586287285144479 ) ) ;
#12 = DIRECTION ( 'NONE',  ( 1.000000000000000000, 0.0000000000000000000, 0.0000000000000000000 ) ) ;
#13 = DIRECTION ( 'NONE',  ( 3.491481338843133355E-15, -0.0000000000000000000, 1.000000000000000000 ) ) ;
#14 = DIRECTION ( 'NONE',  ( 1.000000000000000000, 0.0000000000000000000, -3.469446951953614189E-15 ) ) ;
#15 = AXIS2_PLACEMENT_3D ( 'NONE', #44, #141, #55 ) ;
#16 = AXIS2_PLACEMENT_3D ( 'NONE', #138, #215, #39 ) ;
#17 = EDGE_CURVE ( 'NONE', #171, #171, #3, .T. ) ;
#18 = DESIGN_CONTEXT ( 'detailed design', #163, 'design' ) ;
#19 = DIRECTION ( 'NONE',  ( 3.491481338843133355E-15, -0.0000000000000000000, 1.000000000000000000 ) ) ;
#20 = APPROVAL_PERSON_ORGANIZATION ( #69, #222, #146 ) ;
#21 = CARTESIAN_POINT ( 'NONE',  ( 1.600000000000132871, 0.0000000000000000000, 37.99999999999999289 ) ) ;
#22 = PERSON_AND_ORGANIZATION_ROLE ( 'classification_officer' ) ;
#23 = DATE_TIME_ROLE ( 'classification_date' ) ;
#24 = ORIENTED_EDGE ( 'NONE', *, *, #191, .T. ) ;
#25 = FACE_OUTER_BOUND ( 'NONE', #207, .T. ) ;
#26 = DIRECTION ( 'NONE',  ( 3.491481338843133355E-15, -0.0000000000000000000, 1.000000000000000000 ) ) ;
#27 = CARTESIAN_POINT ( 'NONE',  ( -4.915890506466203054E-37, 0.0000000000000000000, -1.407967000074253141E-22 ) ) ;
#28 = PERSON_AND_ORGANIZATION_ROLE ( 'design_supplier' ) ;
#29 = CARTESIAN_POINT ( 'NONE',  ( 0.0000000000000000000, 0.0000000000000000000, 0.0000000000000000000 ) ) ;
#30 = PRODUCT_DEFINITION_FORMATION_WITH_SPECIFIED_SOURCE ( 'ANY', '', #41, .NOT_KNOWN. ) ;
#31 = ORIENTED_EDGE ( 'NONE', *, *, #77, .T. ) ;
#32 = CIRCLE ( 'NONE', #173, 0.4000000000000001887 ) ;
#33 = CARTESIAN_POINT ( 'NONE',  ( 2.000000000000026201, 0.0000000000000000000, 7.434586287285137374 ) ) ;
#34 = ADVANCED_FACE ( 'NONE', ( #25, #108 ), #68, .T. ) ;
#35 = CC_DESIGN_APPROVAL ( #212, ( #30 ) ) ;
#36 = VERTEX_POINT ( 'NONE', #38 ) ;
#37 = DIRECTION ( 'NONE',  ( 1.000000000000000000, 0.0000000000000000000, -3.491481338843133355E-15 ) ) ;
#38 = CARTESIAN_POINT ( 'NONE',  ( 0.4681483474218666729, 0.0000000000000000000, 1.717638090205026780 ) ) ;
#39 = DIRECTION ( 'NONE',  ( -1.000000000000000000, 0.0000000000000000000, 3.491481338843133355E-15 ) ) ;
#40 = CC_DESIGN_SECURITY_CLASSIFICATION ( #134, ( #30 ) ) ;
#41 = PRODUCT ( '334860', '334860', '', ( #179 ) ) ;
#42 = APPROVAL_DATE_TIME ( #226, #222 ) ;
#43 = DIRECTION ( 'NONE',  ( 0.0000000000000000000, 0.0000000000000000000, 1.000000000000000000 ) ) ;
#44 = CARTESIAN_POINT ( 'NONE',  ( 4.189777606611758449E-15, 0.0000000000000000000, 1.199999999999999734 ) ) ;
#45 = PERSON_AND_ORGANIZATION ( #181, #121 ) ;
#46 = DIRECTION ( 'NONE',  ( 3.491481338843133355E-15, -0.0000000000000000000, 1.000000000000000000 ) ) ;
#47 = DIRECTION ( 'NONE',  ( 1.000000000000000000, 0.0000000000000000000, -4.336808689942017736E-15 ) ) ;
#48 = MANIFOLD_SOLID_BREP ( 'Corps-Déplacer/Copier1[2]', #133 ) ;
#49 = ORIENTED_EDGE ( 'NONE', *, *, #56, .F. ) ;
#50 = DIRECTION ( 'NONE',  ( -1.000000000000000000, 0.0000000000000000000, 3.491481338843133355E-15 ) ) ;
#51 = DIRECTION ( 'NONE',  ( 1.000000000000000000, 0.0000000000000000000, -3.491481338843133355E-15 ) ) ;
#52 = AXIS2_PLACEMENT_3D ( 'NONE', #196, #125, #47 ) ;
#53 = CC_DESIGN_DATE_AND_TIME_ASSIGNMENT ( #84, #243, ( #95 ) ) ;
#54 = AXIS2_PLACEMENT_3D ( 'NONE', #29, #46, #187 ) ;
#55 = DIRECTION ( 'NONE',  ( 1.000000000000000000, 0.0000000000000000000, -3.491481338843133750E-15 ) ) ;
#56 = EDGE_CURVE ( 'NONE', #110, #110, #32, .T. ) ;
#57 = PLANE ( 'NONE',  #16 ) ;
#58 = CARTESIAN_POINT ( 'NONE',  ( 1.326762908760390423E-13, 0.0000000000000000000, 38.00000000000000000 ) ) ;
#59 = LOCAL_TIME ( 7, 47, 7.000000000000000000, #148 ) ;
#60 = CARTESIAN_POINT ( 'NONE',  ( 0.4000000000000001887, 0.0000000000000000000, -1.396592817130653910E-15 ) ) ;
#61 = PERSON_AND_ORGANIZATION ( #181, #121 ) ;
#62 = PERSON_AND_ORGANIZATION_ROLE ( 'design_owner' ) ;
#63 = FACE_OUTER_BOUND ( 'NONE', #85, .T. ) ;
#64 = AXIS2_PLACEMENT_3D ( 'NONE', #209, #229, #50 ) ;
#65 = SHAPE_DEFINITION_REPRESENTATION ( #101, #76 ) ;
#66 = EDGE_LOOP ( 'NONE', ( #231 ) ) ;
#67 = CALENDAR_DATE ( 2021, 9, 11 ) ;
#68 = CYLINDRICAL_SURFACE ( 'NONE', #54, 2.000000000000000000 ) ;
#69 = PERSON_AND_ORGANIZATION ( #181, #121 ) ;
#70 = FACE_OUTER_BOUND ( 'NONE', #180, .T. ) ;
#71 = DIRECTION ( 'NONE',  ( 3.491481338843133355E-15, -0.0000000000000000000, 1.000000000000000000 ) ) ;
#72 = AXIS2_PLACEMENT_3D ( 'NONE', #114, #136, #91 ) ;
#73 = CIRCLE ( 'NONE', #137, 0.4000000000000001887 ) ;
#74 = CC_DESIGN_PERSON_AND_ORGANIZATION_ASSIGNMENT ( #217, #28, ( #30 ) ) ;
#75 = CIRCLE ( 'NONE', #72, 0.4681483474218606222 ) ;
#76 = ADVANCED_BREP_SHAPE_REPRESENTATION ( '334860', ( #132, #48, #127 ), #233 ) ;
#77 = EDGE_CURVE ( 'NONE', #170, #170, #73, .T. ) ;
#78 = CIRCLE ( 'NONE', #52, 1.600000000000000089 ) ;
#79 = APPLICATION_PROTOCOL_DEFINITION ( 'international standard', 'config_control_design', 1994, #163 ) ;
#80 = CALENDAR_DATE ( 2021, 9, 11 ) ;
#81 = CARTESIAN_POINT ( 'NONE',  ( 1.326762908760390423E-13, 0.0000000000000000000, 38.00000000000000000 ) ) ;
#82 = APPROVAL_STATUS ( 'not_yet_approved' ) ;
#83 = EDGE_LOOP ( 'NONE', ( #201 ) ) ;
#84 = DATE_AND_TIME ( #6, #139 ) ;
#85 = EDGE_LOOP ( 'NONE', ( #2 ) ) ;
#86 = FACE_BOUND ( 'NONE', #144, .T. ) ;
#87 = CARTESIAN_POINT ( 'NONE',  ( 0.0000000000000000000, 0.0000000000000000000, 0.0000000000000000000 ) ) ;
#88 = AXIS2_PLACEMENT_3D ( 'NONE', #87, #71, #51 ) ;
#89 = ADVANCED_FACE ( 'NONE', ( #86, #70 ), #227, .T. ) ;
#90 = DIRECTION ( 'NONE',  ( 3.491481338843133355E-15, -0.0000000000000000000, 1.000000000000000000 ) ) ;
#91 = DIRECTION ( 'NONE',  ( 1.000000000000000000, 0.0000000000000000000, -3.705499518539585800E-15 ) ) ;
#92 = DIRECTION ( 'NONE',  ( 1.000000000000000000, 0.0000000000000000000, -3.491481338843133355E-15 ) ) ;
#93 = APPROVAL_DATE_TIME ( #166, #212 ) ;
#94 = APPROVAL ( #185, 'UNSPECIFIED' ) ;
#95 = PRODUCT_DEFINITION ( 'UNKNOWN', '', #30, #18 ) ;
#96 = CALENDAR_DATE ( 2021, 9, 11 ) ;
#97 = DIRECTION ( 'NONE',  ( 1.000000000000000000, 0.0000000000000000000, -3.252606517456511724E-15 ) ) ;
#98 = PERSON_AND_ORGANIZATION_ROLE ( 'creator' ) ;
#99 = ADVANCED_FACE ( 'NONE', ( #167, #165 ), #208, .T. ) ;
#100 = CARTESIAN_POINT ( 'NONE',  ( 4.189777606611757660E-15, 0.0000000000000000000, 1.199999999999999512 ) ) ;
#101 = PRODUCT_DEFINITION_SHAPE ( 'NONE', 'NONE',  #95 ) ;
#102 = DIRECTION ( 'NONE',  ( -3.491481338843133355E-15, 0.0000000000000000000, -1.000000000000000000 ) ) ;
#103 = SECURITY_CLASSIFICATION_LEVEL ( 'unclassified' ) ;
#104 = ORIENTED_EDGE ( 'NONE', *, *, #240, .F. ) ;
#105 = FACE_OUTER_BOUND ( 'NONE', #152, .T. ) ;
#106 = LOCAL_TIME ( 7, 47, 7.000000000000000000, #123 ) ;
#107 = EDGE_LOOP ( 'NONE', ( #169 ) ) ;
#108 = FACE_OUTER_BOUND ( 'NONE', #83, .T. ) ;
#109 = CLOSED_SHELL ( 'NONE', ( #34, #130, #177, #150, #89, #113 ) ) ;
#110 = VERTEX_POINT ( 'NONE', #129 ) ;
#111 = APPLICATION_CONTEXT ( 'configuration controlled 3d designs of mechanical parts and assemblies' ) ;
#112 = UNCERTAINTY_MEASURE_WITH_UNIT (LENGTH_MEASURE( 1.000000000000000082E-05 ), #120, 'distance_accuracy_value', 'NONE');
#113 = ADVANCED_FACE ( 'NONE', ( #128 ), #1, .T. ) ;
#114 = CARTESIAN_POINT ( 'NONE',  ( 5.997101338837015618E-15, 0.0000000000000000000, 1.717638090205028334 ) ) ;
#115 = CC_DESIGN_APPROVAL ( #222, ( #134 ) ) ;
#116 = APPLICATION_PROTOCOL_DEFINITION ( 'international standard', 'config_control_design', 1994, #111 ) ;
#117 = EDGE_LOOP ( 'NONE', ( #145 ) ) ;
#118 = AXIS2_PLACEMENT_3D ( 'NONE', #81, #161, #147 ) ;
#119 = CALENDAR_DATE ( 2021, 9, 11 ) ;
#120 =( LENGTH_UNIT ( ) NAMED_UNIT ( * ) SI_UNIT ( .MILLI., .METRE. ) );
#121 = ORGANIZATION ( 'UNSPECIFIED', 'UNSPECIFIED', '' ) ;
#122 = ORIENTED_EDGE ( 'NONE', *, *, #210, .F. ) ;
#123 = COORDINATED_UNIVERSAL_TIME_OFFSET ( 1, 0, .AHEAD. ) ;
#124 = EDGE_LOOP ( 'NONE', ( #149 ) ) ;
#125 = DIRECTION ( 'NONE',  ( 3.491481338843133355E-15, -0.0000000000000000000, 1.000000000000000000 ) ) ;
#126 = DIRECTION ( 'NONE',  ( 3.491481338843133355E-15, -0.0000000000000000000, 1.000000000000000000 ) ) ;
#127 = AXIS2_PLACEMENT_3D ( 'NONE', #241, #43, #12 ) ;
#128 = FACE_OUTER_BOUND ( 'NONE', #66, .T. ) ;
#129 = CARTESIAN_POINT ( 'NONE',  ( 0.4000000000000043521, 0.0000000000000000000, 1.199999999999998179 ) ) ;
#130 = ADVANCED_FACE ( 'NONE', ( #189, #242 ), #232, .T. ) ;
#131 = APPROVAL_PERSON_ORGANIZATION ( #199, #94, #159 ) ;
#132 = MANIFOLD_SOLID_BREP ( 'Corps-Déplacer/Copier1[1]', #109 ) ;
#133 = CLOSED_SHELL ( 'NONE', ( #223, #99, #206 ) ) ;
#134 = SECURITY_CLASSIFICATION ( '', '', #103 ) ;
#135 = CARTESIAN_POINT ( 'NONE',  ( 0.4000000000000043521, 0.0000000000000000000, 1.199999999999998179 ) ) ;
#136 = DIRECTION ( 'NONE',  ( 3.491481338843133355E-15, -0.0000000000000000000, 1.000000000000000000 ) ) ;
#137 = AXIS2_PLACEMENT_3D ( 'NONE', #100, #9, #162 ) ;
#138 = CARTESIAN_POINT ( 'NONE',  ( 4.189777606611758449E-15, -1.301042606982605074E-16, 1.199999999999999734 ) ) ;
#139 = LOCAL_TIME ( 7, 47, 7.000000000000000000, #218 ) ;
#140 = APPROVAL_STATUS ( 'not_yet_approved' ) ;
#141 = DIRECTION ( 'NONE',  ( 3.491481338843133355E-15, -0.0000000000000000000, 1.000000000000000000 ) ) ;
#142 = PERSON_AND_ORGANIZATION ( #181, #121 ) ;
#143 = EDGE_LOOP ( 'NONE', ( #122 ) ) ;
#144 = EDGE_LOOP ( 'NONE', ( #24 ) ) ;
#145 = ORIENTED_EDGE ( 'NONE', *, *, #210, .T. ) ;
#146 = APPROVAL_ROLE ( '' ) ;
#147 = DIRECTION ( 'NONE',  ( -1.000000000000000000, 0.0000000000000000000, 4.336808689942017736E-15 ) ) ;
#148 = COORDINATED_UNIVERSAL_TIME_OFFSET ( 1, 0, .AHEAD. ) ;
#149 = ORIENTED_EDGE ( 'NONE', *, *, #194, .T. ) ;
#150 = ADVANCED_FACE ( 'NONE', ( #237, #63 ), #198, .F. ) ;
#151 =( NAMED_UNIT ( * ) PLANE_ANGLE_UNIT ( ) SI_UNIT ( $, .RADIAN. ) );
#152 = EDGE_LOOP ( 'NONE', ( #186 ) ) ;
#153 = LOCAL_TIME ( 7, 47, 7.000000000000000000, #224 ) ;
#154 = CC_DESIGN_DATE_AND_TIME_ASSIGNMENT ( #200, #23, ( #134 ) ) ;
#155 = AXIS2_PLACEMENT_3D ( 'NONE', #183, #26, #220 ) ;
#156 = AXIS2_PLACEMENT_3D ( 'NONE', #10, #90, #211 ) ;
#157 = FACE_OUTER_BOUND ( 'NONE', #107, .T. ) ;
#158 = CC_DESIGN_PERSON_AND_ORGANIZATION_ASSIGNMENT ( #238, #62, ( #41 ) ) ;
#159 = APPROVAL_ROLE ( '' ) ;
#160 = CIRCLE ( 'NONE', #156, 2.000000000000000000 ) ;
#161 = DIRECTION ( 'NONE',  ( -3.491481338843133355E-15, 0.0000000000000000000, -1.000000000000000000 ) ) ;
#162 = DIRECTION ( 'NONE',  ( 1.000000000000000000, 0.0000000000000000000, -3.252606517456511724E-15 ) ) ;
#163 = APPLICATION_CONTEXT ( 'configuration controlled 3d designs of mechanical parts and assemblies' ) ;
#164 = PERSON_AND_ORGANIZATION_ROLE ( 'creator' ) ;
#165 = FACE_OUTER_BOUND ( 'NONE', #225, .T. ) ;
#166 = DATE_AND_TIME ( #80, #106 ) ;
#167 = FACE_OUTER_BOUND ( 'NONE', #124, .T. ) ;
#168 = CC_DESIGN_PERSON_AND_ORGANIZATION_ASSIGNMENT ( #45, #164, ( #30 ) ) ;
#169 = ORIENTED_EDGE ( 'NONE', *, *, #56, .T. ) ;
#170 = VERTEX_POINT ( 'NONE', #135 ) ;
#171 = VERTEX_POINT ( 'NONE', #33 ) ;
#172 = APPROVAL_PERSON_ORGANIZATION ( #61, #212, #182 ) ;
#173 = AXIS2_PLACEMENT_3D ( 'NONE', #203, #13, #97 ) ;
#174 = CARTESIAN_POINT ( 'NONE',  ( -9.831781012932406109E-37, 0.0000000000000000000, -2.815934000148506281E-22 ) ) ;
#175 = PRODUCT_RELATED_PRODUCT_CATEGORY ( 'detail', '', ( #41 ) ) ;
#176 = AXIS2_PLACEMENT_3D ( 'NONE', #27, #102, #184 ) ;
#177 = ADVANCED_FACE ( 'NONE', ( #195 ), #235, .T. ) ;
#178 = AXIS2_PLACEMENT_3D ( 'NONE', #174, #214, #92 ) ;
#179 = MECHANICAL_CONTEXT ( 'NONE', #111, 'mechanical' ) ;
#180 = EDGE_LOOP ( 'NONE', ( #239 ) ) ;
#181 = PERSON ( 'UNSPECIFIED', 'UNSPECIFIED', 'UNSPECIFIED', ('UNSPECIFIED'), ('UNSPECIFIED'), ('UNSPECIFIED') ) ;
#182 = APPROVAL_ROLE ( '' ) ;
#183 = CARTESIAN_POINT ( 'NONE',  ( 2.595771928407513653E-14, 0.0000000000000000000, 7.434586287285144479 ) ) ;
#184 = DIRECTION ( 'NONE',  ( -1.000000000000000000, 0.0000000000000000000, 3.491481338843133355E-15 ) ) ;
#185 = APPROVAL_STATUS ( 'not_yet_approved' ) ;
#186 = ORIENTED_EDGE ( 'NONE', *, *, #194, .F. ) ;
#187 = DIRECTION ( 'NONE',  ( 1.000000000000000000, 0.0000000000000000000, -3.491481338843133355E-15 ) ) ;
#188 = EDGE_LOOP ( 'NONE', ( #7 ) ) ;
#189 = FACE_OUTER_BOUND ( 'NONE', #188, .T. ) ;
#190 = CIRCLE ( 'NONE', #178, 0.4000000000000001887 ) ;
#191 = EDGE_CURVE ( 'NONE', #36, #36, #75, .T. ) ;
#192 = CC_DESIGN_PERSON_AND_ORGANIZATION_ASSIGNMENT ( #197, #22, ( #134 ) ) ;
#193 = VERTEX_POINT ( 'NONE', #60 ) ;
#194 = EDGE_CURVE ( 'NONE', #193, #193, #190, .T. ) ;
#195 = FACE_OUTER_BOUND ( 'NONE', #117, .T. ) ;
#196 = CARTESIAN_POINT ( 'NONE',  ( 1.326762908760390423E-13, 0.0000000000000000000, 38.00000000000000000 ) ) ;
#197 = PERSON_AND_ORGANIZATION ( #181, #121 ) ;
#198 = TOROIDAL_SURFACE ( 'NONE', #15, 2.400000000000000799, 2.000000000000000000 ) ;
#199 = PERSON_AND_ORGANIZATION ( #181, #121 ) ;
#200 = DATE_AND_TIME ( #119, #59 ) ;
#201 = ORIENTED_EDGE ( 'NONE', *, *, #17, .T. ) ;
#202 = DATE_AND_TIME ( #67, #213 ) ;
#203 = CARTESIAN_POINT ( 'NONE',  ( 4.189777606611757660E-15, 0.0000000000000000000, 1.199999999999999512 ) ) ;
#204 = PLANE ( 'NONE',  #176 ) ;
#205 = COORDINATED_UNIVERSAL_TIME_OFFSET ( 1, 0, .AHEAD. ) ;
#206 = ADVANCED_FACE ( 'NONE', ( #157 ), #57, .F. ) ;
#207 = EDGE_LOOP ( 'NONE', ( #104 ) ) ;
#208 = CYLINDRICAL_SURFACE ( 'NONE', #88, 0.4000000000000001887 ) ;
#209 = CARTESIAN_POINT ( 'NONE',  ( 4.189777606611758449E-15, -1.301042606982605074E-16, 1.199999999999999734 ) ) ;
#210 = EDGE_CURVE ( 'NONE', #216, #216, #78, .T. ) ;
#211 = DIRECTION ( 'NONE',  ( 1.000000000000000000, 0.0000000000000000000, -3.469446951953614189E-15 ) ) ;
#212 = APPROVAL ( #140, 'UNSPECIFIED' ) ;
#213 = LOCAL_TIME ( 7, 47, 7.000000000000000000, #205 ) ;
#214 = DIRECTION ( 'NONE',  ( 3.491481338843133355E-15, -0.0000000000000000000, 1.000000000000000000 ) ) ;
#215 = DIRECTION ( 'NONE',  ( -3.491481338843133355E-15, 0.0000000000000000000, -1.000000000000000000 ) ) ;
#216 = VERTEX_POINT ( 'NONE', #21 ) ;
#217 = PERSON_AND_ORGANIZATION ( #181, #121 ) ;
#218 = COORDINATED_UNIVERSAL_TIME_OFFSET ( 1, 0, .AHEAD. ) ;
#219 = EDGE_LOOP ( 'NONE', ( #31 ) ) ;
#220 = DIRECTION ( 'NONE',  ( 1.000000000000000000, 0.0000000000000000000, -3.469446951953614189E-15 ) ) ;
#221 = CC_DESIGN_APPROVAL ( #94, ( #95 ) ) ;
#222 = APPROVAL ( #82, 'UNSPECIFIED' ) ;
#223 = ADVANCED_FACE ( 'NONE', ( #105 ), #204, .T. ) ;
#224 = COORDINATED_UNIVERSAL_TIME_OFFSET ( 1, 0, .AHEAD. ) ;
#225 = EDGE_LOOP ( 'NONE', ( #49 ) ) ;
#226 = DATE_AND_TIME ( #96, #153 ) ;
#227 = CONICAL_SURFACE ( 'NONE', #234, 2.000000000000000000, 0.2617993877991428020 ) ;
#228 = CARTESIAN_POINT ( 'NONE',  ( 2.000000000000131450, 0.0000000000000000000, 37.59999999999999432 ) ) ;
#229 = DIRECTION ( 'NONE',  ( -3.491481338843133355E-15, 0.0000000000000000000, -1.000000000000000000 ) ) ;
#230 = VERTEX_POINT ( 'NONE', #228 ) ;
#231 = ORIENTED_EDGE ( 'NONE', *, *, #77, .F. ) ;
#232 = CONICAL_SURFACE ( 'NONE', #118, 1.600000000000000089, 0.7853981633974512766 ) ;
#233 =( GEOMETRIC_REPRESENTATION_CONTEXT ( 3 ) GLOBAL_UNCERTAINTY_ASSIGNED_CONTEXT ( ( #112 ) ) GLOBAL_UNIT_ASSIGNED_CONTEXT ( ( #120, #151, #8 ) ) REPRESENTATION_CONTEXT ( 'NONE', 'WORKASPACE' ) );
#234 = AXIS2_PLACEMENT_3D ( 'NONE', #11, #126, #14 ) ;
#235 = PLANE ( 'NONE',  #4 ) ;
#236 = APPROVAL_DATE_TIME ( #202, #94 ) ;
#237 = FACE_OUTER_BOUND ( 'NONE', #219, .T. ) ;
#238 = PERSON_AND_ORGANIZATION ( #181, #121 ) ;
#239 = ORIENTED_EDGE ( 'NONE', *, *, #17, .F. ) ;
#240 = EDGE_CURVE ( 'NONE', #230, #230, #160, .T. ) ;
#241 = CARTESIAN_POINT ( 'NONE',  ( 0.0000000000000000000, 0.0000000000000000000, 0.0000000000000000000 ) ) ;
#242 = FACE_BOUND ( 'NONE', #143, .T. ) ;
#243 = DATE_TIME_ROLE ( 'creation_date' ) ;
ENDSEC;
END-ISO-10303-21;
