ISO-10303-21;
HEADER;
FILE_DESCRIPTION (( 'STEP AP203' ),
    '1' );
FILE_NAME ('334859.step',
    '2021-11-09T06:47:06',
    ( '' ),
    ( '' ),
    'SwSTEP 2.0',
    'SolidWorks 2019',
    '' );
FILE_SCHEMA (( 'CONFIG_CONTROL_DESIGN' ));
ENDSEC;

DATA;
#1 = PRODUCT ( '334859', '334859', '', ( #101 ) ) ;
#2 = EDGE_CURVE ( 'NONE', #219, #219, #203, .T. ) ;
#3 = PERSON_AND_ORGANIZATION_ROLE ( 'creator' ) ;
#4 = AXIS2_PLACEMENT_3D ( 'NONE', #135, #192, #66 ) ;
#5 = CARTESIAN_POINT ( 'NONE',  ( 0.3500000000000037526, 0.0000000000000000000, 1.049999999999998712 ) ) ;
#6 = DIRECTION ( 'NONE',  ( -3.491481338843133355E-15, 0.0000000000000000000, -1.000000000000000000 ) ) ;
#7 = CARTESIAN_POINT ( 'NONE',  ( 0.4181483474218655738, 0.0000000000000000000, 1.567638090205027313 ) ) ;
#8 = DIRECTION ( 'NONE',  ( 1.000000000000000000, 0.0000000000000000000, -4.336808689942017736E-15 ) ) ;
#9 = CC_DESIGN_DATE_AND_TIME_ASSIGNMENT ( #208, #228, ( #28 ) ) ;
#10 = APPROVAL_STATUS ( 'not_yet_approved' ) ;
#11 = CARTESIAN_POINT ( 'NONE',  ( 3.666055405785290023E-15, 0.0000000000000000000, 1.050000000000000044 ) ) ;
#12 = FACE_OUTER_BOUND ( 'NONE', #221, .T. ) ;
#13 = DIRECTION ( 'NONE',  ( -1.000000000000000000, 0.0000000000000000000, 3.491481338843133355E-15 ) ) ;
#14 = APPROVAL_STATUS ( 'not_yet_approved' ) ;
#15 = CYLINDRICAL_SURFACE ( 'NONE', #36, 0.3500000000000000333 ) ;
#16 = DESIGN_CONTEXT ( 'detailed design', #30, 'design' ) ;
#17 = CALENDAR_DATE ( 2021, 9, 11 ) ;
#18 = ORIENTED_EDGE ( 'NONE', *, *, #2, .F. ) ;
#19 =( GEOMETRIC_REPRESENTATION_CONTEXT ( 3 ) GLOBAL_UNCERTAINTY_ASSIGNED_CONTEXT ( ( #33 ) ) GLOBAL_UNIT_ASSIGNED_CONTEXT ( ( #24, #158, #63 ) ) REPRESENTATION_CONTEXT ( 'NONE', 'WORKASPACE' ) );
#20 = ORIENTED_EDGE ( 'NONE', *, *, #88, .T. ) ;
#21 = CC_DESIGN_PERSON_AND_ORGANIZATION_ASSIGNMENT ( #188, #181, ( #121 ) ) ;
#22 = EDGE_LOOP ( 'NONE', ( #20 ) ) ;
#23 = LOCAL_TIME ( 7, 47, 6.000000000000000000, #145 ) ;
#24 =( LENGTH_UNIT ( ) NAMED_UNIT ( * ) SI_UNIT ( .MILLI., .METRE. ) );
#25 = PERSON_AND_ORGANIZATION ( #130, #233 ) ;
#26 = ADVANCED_FACE ( 'NONE', ( #124, #179 ), #15, .T. ) ;
#27 = PERSON_AND_ORGANIZATION ( #130, #233 ) ;
#28 = PRODUCT_DEFINITION ( 'UNKNOWN', '', #216, #16 ) ;
#29 = FACE_OUTER_BOUND ( 'NONE', #107, .T. ) ;
#30 = APPLICATION_CONTEXT ( 'configuration controlled 3d designs of mechanical parts and assemblies' ) ;
#31 = VERTEX_POINT ( 'NONE', #7 ) ;
#32 = CARTESIAN_POINT ( 'NONE',  ( 0.0000000000000000000, 0.0000000000000000000, 0.0000000000000000000 ) ) ;
#33 = UNCERTAINTY_MEASURE_WITH_UNIT (LENGTH_MEASURE( 1.000000000000000082E-05 ), #24, 'distance_accuracy_value', 'NONE');
#34 = CARTESIAN_POINT ( 'NONE',  ( 2.608551637076074607E-14, 0.0000000000000000000, 7.471188827663594267 ) ) ;
#35 = DIRECTION ( 'NONE',  ( 1.000000000000000000, 0.0000000000000000000, -3.469446951953614189E-15 ) ) ;
#36 = AXIS2_PLACEMENT_3D ( 'NONE', #200, #38, #193 ) ;
#37 = DIRECTION ( 'NONE',  ( 3.491481338843133355E-15, -0.0000000000000000000, 1.000000000000000000 ) ) ;
#38 = DIRECTION ( 'NONE',  ( 3.491481338843133355E-15, -0.0000000000000000000, 1.000000000000000000 ) ) ;
#39 = CC_DESIGN_PERSON_AND_ORGANIZATION_ASSIGNMENT ( #78, #96, ( #216 ) ) ;
#40 = ORIENTED_EDGE ( 'NONE', *, *, #224, .F. ) ;
#41 = AXIS2_PLACEMENT_3D ( 'NONE', #231, #123, #171 ) ;
#42 = LOCAL_TIME ( 7, 47, 6.000000000000000000, #43 ) ;
#43 = COORDINATED_UNIVERSAL_TIME_OFFSET ( 1, 0, .AHEAD. ) ;
#44 = ADVANCED_FACE ( 'NONE', ( #116, #138 ), #207, .T. ) ;
#45 = APPROVAL_DATE_TIME ( #134, #186 ) ;
#46 = CARTESIAN_POINT ( 'NONE',  ( 3.666055405785290812E-15, 0.0000000000000000000, 1.050000000000000044 ) ) ;
#47 = CC_DESIGN_APPROVAL ( #240, ( #121 ) ) ;
#48 = PERSON_AND_ORGANIZATION_ROLE ( 'creator' ) ;
#49 = PLANE ( 'NONE',  #142 ) ;
#50 = ADVANCED_FACE ( 'NONE', ( #29 ), #157, .F. ) ;
#51 = DIRECTION ( 'NONE',  ( 1.000000000000000000, 0.0000000000000000000, -3.717264591378872007E-15 ) ) ;
#52 = CARTESIAN_POINT ( 'NONE',  ( 0.3500000000000000333, 0.0000000000000000000, -1.222018750188496848E-15 ) ) ;
#53 = APPLICATION_CONTEXT ( 'configuration controlled 3d designs of mechanical parts and assemblies' ) ;
#54 = DIRECTION ( 'NONE',  ( -1.000000000000000000, 0.0000000000000000000, 3.491481338843133355E-15 ) ) ;
#55 = AXIS2_PLACEMENT_3D ( 'NONE', #176, #229, #87 ) ;
#56 = ORIENTED_EDGE ( 'NONE', *, *, #133, .T. ) ;
#57 = CC_DESIGN_PERSON_AND_ORGANIZATION_ASSIGNMENT ( #25, #48, ( #28 ) ) ;
#58 = APPROVAL_ROLE ( '' ) ;
#59 = EDGE_LOOP ( 'NONE', ( #90 ) ) ;
#60 = APPROVAL_PERSON_ORGANIZATION ( #131, #186, #151 ) ;
#61 = APPROVAL_PERSON_ORGANIZATION ( #196, #240, #58 ) ;
#62 = CARTESIAN_POINT ( 'NONE',  ( 2.000000000000026201, 0.0000000000000000000, 7.471188827663587162 ) ) ;
#63 =( NAMED_UNIT ( * ) SI_UNIT ( $, .STERADIAN. ) SOLID_ANGLE_UNIT ( ) );
#64 = VERTEX_POINT ( 'NONE', #62 ) ;
#65 = FACE_OUTER_BOUND ( 'NONE', #146, .T. ) ;
#66 = DIRECTION ( 'NONE',  ( -1.000000000000000000, 0.0000000000000000000, 4.336808689942017736E-15 ) ) ;
#67 = AXIS2_PLACEMENT_3D ( 'NONE', #11, #189, #51 ) ;
#68 = AXIS2_PLACEMENT_3D ( 'NONE', #34, #104, #35 ) ;
#69 = DIRECTION ( 'NONE',  ( 3.491481338843133355E-15, -0.0000000000000000000, 1.000000000000000000 ) ) ;
#70 = FACE_OUTER_BOUND ( 'NONE', #89, .T. ) ;
#71 = FACE_BOUND ( 'NONE', #237, .T. ) ;
#72 = EDGE_CURVE ( 'NONE', #120, #120, #160, .T. ) ;
#73 = EDGE_LOOP ( 'NONE', ( #204 ) ) ;
#74 = AXIS2_PLACEMENT_3D ( 'NONE', #46, #218, #112 ) ;
#75 = ORIENTED_EDGE ( 'NONE', *, *, #206, .T. ) ;
#76 = LOCAL_TIME ( 7, 47, 6.000000000000000000, #156 ) ;
#77 = PERSON_AND_ORGANIZATION_ROLE ( 'design_owner' ) ;
#78 = PERSON_AND_ORGANIZATION ( #130, #233 ) ;
#79 = CIRCLE ( 'NONE', #98, 2.000000000000000000 ) ;
#80 = APPLICATION_PROTOCOL_DEFINITION ( 'international standard', 'config_control_design', 1994, #30 ) ;
#81 = CARTESIAN_POINT ( 'NONE',  ( 3.666055405785290023E-15, 0.0000000000000000000, 1.050000000000000044 ) ) ;
#82 = CARTESIAN_POINT ( 'NONE',  ( 0.3500000000000037526, 0.0000000000000000000, 1.049999999999998712 ) ) ;
#83 = FACE_OUTER_BOUND ( 'NONE', #126, .T. ) ;
#84 = APPROVAL_ROLE ( '' ) ;
#85 = DIRECTION ( 'NONE',  ( 3.491481338843133355E-15, -0.0000000000000000000, 1.000000000000000000 ) ) ;
#86 = DIRECTION ( 'NONE',  ( 3.491481338843133355E-15, -0.0000000000000000000, 1.000000000000000000 ) ) ;
#87 = DIRECTION ( 'NONE',  ( 1.000000000000000000, 0.0000000000000000000, -3.469446951953614189E-15 ) ) ;
#88 = EDGE_CURVE ( 'NONE', #64, #64, #79, .T. ) ;
#89 = EDGE_LOOP ( 'NONE', ( #148 ) ) ;
#90 = ORIENTED_EDGE ( 'NONE', *, *, #180, .F. ) ;
#91 = CIRCLE ( 'NONE', #41, 0.4181483474218600782 ) ;
#92 = CC_DESIGN_PERSON_AND_ORGANIZATION_ASSIGNMENT ( #27, #77, ( #1 ) ) ;
#93 = AXIS2_PLACEMENT_3D ( 'NONE', #234, #86, #8 ) ;
#94 = ADVANCED_FACE ( 'NONE', ( #65, #71 ), #167, .T. ) ;
#95 = CALENDAR_DATE ( 2021, 9, 11 ) ;
#96 = PERSON_AND_ORGANIZATION_ROLE ( 'design_supplier' ) ;
#97 = DIRECTION ( 'NONE',  ( -3.491481338843133355E-15, 0.0000000000000000000, -1.000000000000000000 ) ) ;
#98 = AXIS2_PLACEMENT_3D ( 'NONE', #163, #178, #235 ) ;
#99 = COORDINATED_UNIVERSAL_TIME_OFFSET ( 1, 0, .AHEAD. ) ;
#100 = DIRECTION ( 'NONE',  ( 3.491481338843133355E-15, -0.0000000000000000000, 1.000000000000000000 ) ) ;
#101 = MECHANICAL_CONTEXT ( 'NONE', #53, 'mechanical' ) ;
#102 = PLANE ( 'NONE',  #103 ) ;
#103 = AXIS2_PLACEMENT_3D ( 'NONE', #220, #97, #54 ) ;
#104 = DIRECTION ( 'NONE',  ( 3.491481338843133355E-15, -0.0000000000000000000, 1.000000000000000000 ) ) ;
#105 = CALENDAR_DATE ( 2021, 9, 11 ) ;
#106 = DIRECTION ( 'NONE',  ( 1.000000000000000000, 0.0000000000000000000, -3.491481338843133750E-15 ) ) ;
#107 = EDGE_LOOP ( 'NONE', ( #75 ) ) ;
#108 = CC_DESIGN_SECURITY_CLASSIFICATION ( #121, ( #216 ) ) ;
#109 = EDGE_LOOP ( 'NONE', ( #127 ) ) ;
#110 = ADVANCED_FACE ( 'NONE', ( #136 ), #49, .T. ) ;
#111 = DIRECTION ( 'NONE',  ( 0.0000000000000000000, 0.0000000000000000000, 1.000000000000000000 ) ) ;
#112 = DIRECTION ( 'NONE',  ( 1.000000000000000000, 0.0000000000000000000, -3.491481338843133355E-15 ) ) ;
#113 = AXIS2_PLACEMENT_3D ( 'NONE', #118, #69, #139 ) ;
#114 = DATE_AND_TIME ( #95, #42 ) ;
#115 = CC_DESIGN_PERSON_AND_ORGANIZATION_ASSIGNMENT ( #212, #3, ( #216 ) ) ;
#116 = FACE_BOUND ( 'NONE', #185, .T. ) ;
#117 = VERTEX_POINT ( 'NONE', #227 ) ;
#118 = CARTESIAN_POINT ( 'NONE',  ( 1.326762908760390423E-13, 0.0000000000000000000, 38.00000000000000000 ) ) ;
#119 = ADVANCED_FACE ( 'NONE', ( #141 ), #102, .T. ) ;
#120 = VERTEX_POINT ( 'NONE', #187 ) ;
#121 = SECURITY_CLASSIFICATION ( '', '', #170 ) ;
#122 = DATE_AND_TIME ( #17, #23 ) ;
#123 = DIRECTION ( 'NONE',  ( 3.491481338843133355E-15, -0.0000000000000000000, 1.000000000000000000 ) ) ;
#124 = FACE_OUTER_BOUND ( 'NONE', #166, .T. ) ;
#125 = COORDINATED_UNIVERSAL_TIME_OFFSET ( 1, 0, .AHEAD. ) ;
#126 = EDGE_LOOP ( 'NONE', ( #184 ) ) ;
#127 = ORIENTED_EDGE ( 'NONE', *, *, #133, .F. ) ;
#128 = CC_DESIGN_DATE_AND_TIME_ASSIGNMENT ( #122, #140, ( #121 ) ) ;
#129 = AXIS2_PLACEMENT_3D ( 'NONE', #32, #85, #175 ) ;
#130 = PERSON ( 'UNSPECIFIED', 'UNSPECIFIED', 'UNSPECIFIED', ('UNSPECIFIED'), ('UNSPECIFIED'), ('UNSPECIFIED') ) ;
#131 = PERSON_AND_ORGANIZATION ( #130, #233 ) ;
#132 = DIRECTION ( 'NONE',  ( 1.000000000000000000, 0.0000000000000000000, 0.0000000000000000000 ) ) ;
#133 = EDGE_CURVE ( 'NONE', #31, #31, #91, .T. ) ;
#134 = DATE_AND_TIME ( #214, #76 ) ;
#135 = CARTESIAN_POINT ( 'NONE',  ( 1.326762908760390423E-13, 0.0000000000000000000, 38.00000000000000000 ) ) ;
#136 = FACE_OUTER_BOUND ( 'NONE', #59, .T. ) ;
#137 = ADVANCED_BREP_SHAPE_REPRESENTATION ( '334859', ( #210, #211, #226 ), #19 ) ;
#138 = FACE_OUTER_BOUND ( 'NONE', #239, .T. ) ;
#139 = DIRECTION ( 'NONE',  ( 1.000000000000000000, 0.0000000000000000000, -3.491481338843133355E-15 ) ) ;
#140 = DATE_TIME_ROLE ( 'classification_date' ) ;
#141 = FACE_OUTER_BOUND ( 'NONE', #143, .T. ) ;
#142 = AXIS2_PLACEMENT_3D ( 'NONE', #162, #197, #215 ) ;
#143 = EDGE_LOOP ( 'NONE', ( #18 ) ) ;
#144 = ORIENTED_EDGE ( 'NONE', *, *, #72, .T. ) ;
#145 = COORDINATED_UNIVERSAL_TIME_OFFSET ( 1, 0, .AHEAD. ) ;
#146 = EDGE_LOOP ( 'NONE', ( #144 ) ) ;
#147 = CIRCLE ( 'NONE', #153, 0.3500000000000000333 ) ;
#148 = ORIENTED_EDGE ( 'NONE', *, *, #180, .T. ) ;
#149 = LOCAL_TIME ( 7, 47, 6.000000000000000000, #125 ) ;
#150 = PRODUCT_DEFINITION_SHAPE ( 'NONE', 'NONE',  #28 ) ;
#151 = APPROVAL_ROLE ( '' ) ;
#152 = CARTESIAN_POINT ( 'NONE',  ( 0.0000000000000000000, 0.0000000000000000000, 0.0000000000000000000 ) ) ;
#153 = AXIS2_PLACEMENT_3D ( 'NONE', #81, #100, #155 ) ;
#154 = APPROVAL_STATUS ( 'not_yet_approved' ) ;
#155 = DIRECTION ( 'NONE',  ( 1.000000000000000000, 0.0000000000000000000, -3.717264591378872007E-15 ) ) ;
#156 = COORDINATED_UNIVERSAL_TIME_OFFSET ( 1, 0, .AHEAD. ) ;
#157 = PLANE ( 'NONE',  #172 ) ;
#158 =( NAMED_UNIT ( * ) PLANE_ANGLE_UNIT ( ) SI_UNIT ( $, .RADIAN. ) );
#159 = FACE_OUTER_BOUND ( 'NONE', #109, .T. ) ;
#160 = CIRCLE ( 'NONE', #55, 2.000000000000000000 ) ;
#161 = SHAPE_DEFINITION_REPRESENTATION ( #150, #137 ) ;
#162 = CARTESIAN_POINT ( 'NONE',  ( 3.666055405785290812E-15, -1.138412281109779656E-16, 1.050000000000000044 ) ) ;
#163 = CARTESIAN_POINT ( 'NONE',  ( 2.608551637076074607E-14, 0.0000000000000000000, 7.471188827663594267 ) ) ;
#164 = APPROVAL_PERSON_ORGANIZATION ( #174, #165, #84 ) ;
#165 = APPROVAL ( #10, 'UNSPECIFIED' ) ;
#166 = EDGE_LOOP ( 'NONE', ( #222 ) ) ;
#167 = CONICAL_SURFACE ( 'NONE', #4, 1.600000000000000089, 0.7853981633974512766 ) ;
#168 = CLOSED_SHELL ( 'NONE', ( #119, #26, #50 ) ) ;
#169 = APPROVAL_DATE_TIME ( #114, #165 ) ;
#170 = SECURITY_CLASSIFICATION_LEVEL ( 'unclassified' ) ;
#171 = DIRECTION ( 'NONE',  ( 1.000000000000000000, 0.0000000000000000000, -3.630010858199924170E-15 ) ) ;
#172 = AXIS2_PLACEMENT_3D ( 'NONE', #213, #6, #13 ) ;
#173 = FACE_OUTER_BOUND ( 'NONE', #22, .T. ) ;
#174 = PERSON_AND_ORGANIZATION ( #130, #233 ) ;
#175 = DIRECTION ( 'NONE',  ( 1.000000000000000000, 0.0000000000000000000, -3.491481338843133355E-15 ) ) ;
#176 = CARTESIAN_POINT ( 'NONE',  ( 1.312796983405018142E-13, 0.0000000000000000000, 37.60000000000000142 ) ) ;
#177 = LOCAL_TIME ( 7, 47, 6.000000000000000000, #99 ) ;
#178 = DIRECTION ( 'NONE',  ( 3.491481338843133355E-15, -0.0000000000000000000, 1.000000000000000000 ) ) ;
#179 = FACE_OUTER_BOUND ( 'NONE', #73, .T. ) ;
#180 = EDGE_CURVE ( 'NONE', #209, #209, #147, .T. ) ;
#181 = PERSON_AND_ORGANIZATION_ROLE ( 'classification_officer' ) ;
#182 = ORIENTED_EDGE ( 'NONE', *, *, #72, .F. ) ;
#183 = CC_DESIGN_APPROVAL ( #165, ( #216 ) ) ;
#184 = ORIENTED_EDGE ( 'NONE', *, *, #224, .T. ) ;
#185 = EDGE_LOOP ( 'NONE', ( #56 ) ) ;
#186 = APPROVAL ( #154, 'UNSPECIFIED' ) ;
#187 = CARTESIAN_POINT ( 'NONE',  ( 2.000000000000131450, 0.0000000000000000000, 37.59999999999999432 ) ) ;
#188 = PERSON_AND_ORGANIZATION ( #130, #233 ) ;
#189 = DIRECTION ( 'NONE',  ( 3.491481338843133355E-15, -0.0000000000000000000, 1.000000000000000000 ) ) ;
#190 = VERTEX_POINT ( 'NONE', #82 ) ;
#191 = CYLINDRICAL_SURFACE ( 'NONE', #129, 2.000000000000000000 ) ;
#192 = DIRECTION ( 'NONE',  ( -3.491481338843133355E-15, 0.0000000000000000000, -1.000000000000000000 ) ) ;
#193 = DIRECTION ( 'NONE',  ( 1.000000000000000000, 0.0000000000000000000, -3.491481338843133750E-15 ) ) ;
#194 = CC_DESIGN_APPROVAL ( #186, ( #28 ) ) ;
#195 = ADVANCED_FACE ( 'NONE', ( #70, #159 ), #202, .F. ) ;
#196 = PERSON_AND_ORGANIZATION ( #130, #233 ) ;
#197 = DIRECTION ( 'NONE',  ( -3.491481338843133355E-15, 0.0000000000000000000, -1.000000000000000000 ) ) ;
#198 = PRODUCT_RELATED_PRODUCT_CATEGORY ( 'detail', '', ( #1 ) ) ;
#199 = APPROVAL_DATE_TIME ( #236, #240 ) ;
#200 = CARTESIAN_POINT ( 'NONE',  ( 0.0000000000000000000, 0.0000000000000000000, 0.0000000000000000000 ) ) ;
#201 = ADVANCED_FACE ( 'NONE', ( #12, #173 ), #191, .T. ) ;
#202 = TOROIDAL_SURFACE ( 'NONE', #74, 2.350000000000000089, 2.000000000000000000 ) ;
#203 = CIRCLE ( 'NONE', #242, 0.3500000000000000333 ) ;
#204 = ORIENTED_EDGE ( 'NONE', *, *, #206, .F. ) ;
#205 = CIRCLE ( 'NONE', #67, 0.3500000000000000333 ) ;
#206 = EDGE_CURVE ( 'NONE', #190, #190, #205, .T. ) ;
#207 = CONICAL_SURFACE ( 'NONE', #68, 2.000000000000000000, 0.2617993877991428575 ) ;
#208 = DATE_AND_TIME ( #230, #177 ) ;
#209 = VERTEX_POINT ( 'NONE', #5 ) ;
#210 = MANIFOLD_SOLID_BREP ( 'Corps-Déplacer/Copier1[1]', #225 ) ;
#211 = MANIFOLD_SOLID_BREP ( 'Corps-Déplacer/Copier1[2]', #168 ) ;
#212 = PERSON_AND_ORGANIZATION ( #130, #233 ) ;
#213 = CARTESIAN_POINT ( 'NONE',  ( 3.666055405785290812E-15, -1.138412281109779656E-16, 1.050000000000000044 ) ) ;
#214 = CALENDAR_DATE ( 2021, 9, 11 ) ;
#215 = DIRECTION ( 'NONE',  ( -1.000000000000000000, 0.0000000000000000000, 3.491481338843133355E-15 ) ) ;
#216 = PRODUCT_DEFINITION_FORMATION_WITH_SPECIFIED_SOURCE ( 'ANY', '', #1, .NOT_KNOWN. ) ;
#217 = APPLICATION_PROTOCOL_DEFINITION ( 'international standard', 'config_control_design', 1994, #53 ) ;
#218 = DIRECTION ( 'NONE',  ( 3.491481338843133355E-15, -0.0000000000000000000, 1.000000000000000000 ) ) ;
#219 = VERTEX_POINT ( 'NONE', #52 ) ;
#220 = CARTESIAN_POINT ( 'NONE',  ( -4.915890506466203054E-37, 0.0000000000000000000, -1.407967000074253141E-22 ) ) ;
#221 = EDGE_LOOP ( 'NONE', ( #182 ) ) ;
#222 = ORIENTED_EDGE ( 'NONE', *, *, #2, .T. ) ;
#223 = CARTESIAN_POINT ( 'NONE',  ( -9.831781012932406109E-37, 0.0000000000000000000, -2.815934000148506281E-22 ) ) ;
#224 = EDGE_CURVE ( 'NONE', #117, #117, #238, .T. ) ;
#225 = CLOSED_SHELL ( 'NONE', ( #201, #94, #243, #195, #44, #110 ) ) ;
#226 = AXIS2_PLACEMENT_3D ( 'NONE', #152, #111, #132 ) ;
#227 = CARTESIAN_POINT ( 'NONE',  ( 1.600000000000132871, 0.0000000000000000000, 37.99999999999999289 ) ) ;
#228 = DATE_TIME_ROLE ( 'creation_date' ) ;
#229 = DIRECTION ( 'NONE',  ( 3.491481338843133355E-15, -0.0000000000000000000, 1.000000000000000000 ) ) ;
#230 = CALENDAR_DATE ( 2021, 9, 11 ) ;
#231 = CARTESIAN_POINT ( 'NONE',  ( 5.473379138010546404E-15, 0.0000000000000000000, 1.567638090205028867 ) ) ;
#232 = PLANE ( 'NONE',  #113 ) ;
#233 = ORGANIZATION ( 'UNSPECIFIED', 'UNSPECIFIED', '' ) ;
#234 = CARTESIAN_POINT ( 'NONE',  ( 1.326762908760390423E-13, 0.0000000000000000000, 38.00000000000000000 ) ) ;
#235 = DIRECTION ( 'NONE',  ( 1.000000000000000000, 0.0000000000000000000, -3.469446951953614189E-15 ) ) ;
#236 = DATE_AND_TIME ( #105, #149 ) ;
#237 = EDGE_LOOP ( 'NONE', ( #40 ) ) ;
#238 = CIRCLE ( 'NONE', #93, 1.600000000000000089 ) ;
#239 = EDGE_LOOP ( 'NONE', ( #241 ) ) ;
#240 = APPROVAL ( #14, 'UNSPECIFIED' ) ;
#241 = ORIENTED_EDGE ( 'NONE', *, *, #88, .F. ) ;
#242 = AXIS2_PLACEMENT_3D ( 'NONE', #223, #37, #106 ) ;
#243 = ADVANCED_FACE ( 'NONE', ( #83 ), #232, .T. ) ;
ENDSEC;
END-ISO-10303-21;
