ISO-10303-21;
HEADER;
FILE_DESCRIPTION (( 'STEP AP203' ),
    '1' );
FILE_NAME ('334858.step',
    '2021-11-09T06:47:06',
    ( '' ),
    ( '' ),
    'SwSTEP 2.0',
    'SolidWorks 2019',
    '' );
FILE_SCHEMA (( 'CONFIG_CONTROL_DESIGN' ));
ENDSEC;

DATA;
#1 = ADVANCED_FACE ( 'NONE', ( #56 ), #134, .T. ) ;
#2 = VERTEX_POINT ( 'NONE', #184 ) ;
#3 = AXIS2_PLACEMENT_3D ( 'NONE', #90, #62, #44 ) ;
#4 = PRODUCT_RELATED_PRODUCT_CATEGORY ( 'detail', '', ( #136 ) ) ;
#5 = PERSON_AND_ORGANIZATION ( #16, #8 ) ;
#6 = PERSON_AND_ORGANIZATION_ROLE ( 'design_supplier' ) ;
#7 = FACE_OUTER_BOUND ( 'NONE', #64, .T. ) ;
#8 = ORGANIZATION ( 'UNSPECIFIED', 'UNSPECIFIED', '' ) ;
#9 = ORIENTED_EDGE ( 'NONE', *, *, #70, .T. ) ;
#10 = DIRECTION ( 'NONE',  ( -1.000000000000000000, 0.0000000000000000000, 3.491481338843133355E-15 ) ) ;
#11 = DESIGN_CONTEXT ( 'detailed design', #111, 'design' ) ;
#12 = DIRECTION ( 'NONE',  ( 3.491481338843133355E-15, -0.0000000000000000000, 1.000000000000000000 ) ) ;
#13 = AXIS2_PLACEMENT_3D ( 'NONE', #112, #154, #31 ) ;
#14 = LOCAL_TIME ( 7, 47, 6.000000000000000000, #213 ) ;
#15 = ORIENTED_EDGE ( 'NONE', *, *, #70, .F. ) ;
#16 = PERSON ( 'UNSPECIFIED', 'UNSPECIFIED', 'UNSPECIFIED', ('UNSPECIFIED'), ('UNSPECIFIED'), ('UNSPECIFIED') ) ;
#17 = PRODUCT_DEFINITION ( 'UNKNOWN', '', #123, #11 ) ;
#18 = AXIS2_PLACEMENT_3D ( 'NONE', #55, #67, #151 ) ;
#19 = AXIS2_PLACEMENT_3D ( 'NONE', #51, #92, #10 ) ;
#20 = CC_DESIGN_SECURITY_CLASSIFICATION ( #237, ( #123 ) ) ;
#21 = AXIS2_PLACEMENT_3D ( 'NONE', #152, #33, #88 ) ;
#22 = EDGE_LOOP ( 'NONE', ( #34 ) ) ;
#23 = CARTESIAN_POINT ( 'NONE',  ( 2.000000000000131450, 0.0000000000000000000, 37.59999999999999432 ) ) ;
#24 = DATE_AND_TIME ( #197, #14 ) ;
#25 = EDGE_CURVE ( 'NONE', #181, #181, #79, .T. ) ;
#26 = UNCERTAINTY_MEASURE_WITH_UNIT (LENGTH_MEASURE( 1.000000000000000082E-05 ), #74, 'distance_accuracy_value', 'NONE');
#27 = CC_DESIGN_APPROVAL ( #219, ( #17 ) ) ;
#28 = COORDINATED_UNIVERSAL_TIME_OFFSET ( 1, 0, .AHEAD. ) ;
#29 = DIRECTION ( 'NONE',  ( -1.000000000000000000, 0.0000000000000000000, 3.491481338843133355E-15 ) ) ;
#30 = PERSON_AND_ORGANIZATION ( #16, #8 ) ;
#31 = DIRECTION ( 'NONE',  ( 1.000000000000000000, 0.0000000000000000000, -3.491481338843133355E-15 ) ) ;
#32 = FACE_OUTER_BOUND ( 'NONE', #223, .T. ) ;
#33 = DIRECTION ( 'NONE',  ( 3.491481338843133355E-15, -0.0000000000000000000, 1.000000000000000000 ) ) ;
#34 = ORIENTED_EDGE ( 'NONE', *, *, #25, .F. ) ;
#35 = EDGE_LOOP ( 'NONE', ( #183 ) ) ;
#36 = CONICAL_SURFACE ( 'NONE', #166, 2.000000000000000000, 0.2617993877991429130 ) ;
#37 = VERTEX_POINT ( 'NONE', #210 ) ;
#38 = DIRECTION ( 'NONE',  ( 1.000000000000000000, 0.0000000000000000000, -3.491481338843132961E-15 ) ) ;
#39 = APPROVAL ( #60, 'UNSPECIFIED' ) ;
#40 = VERTEX_POINT ( 'NONE', #23 ) ;
#41 = PERSON_AND_ORGANIZATION_ROLE ( 'design_owner' ) ;
#42 = ADVANCED_FACE ( 'NONE', ( #93 ), #125, .T. ) ;
#43 = ORIENTED_EDGE ( 'NONE', *, *, #205, .F. ) ;
#44 = DIRECTION ( 'NONE',  ( 1.000000000000000000, 0.0000000000000000000, 0.0000000000000000000 ) ) ;
#45 = CARTESIAN_POINT ( 'NONE',  ( 4.949656937184075612E-15, 0.0000000000000000000, 1.417638090205028512 ) ) ;
#46 = CLOSED_SHELL ( 'NONE', ( #48, #243, #1, #95, #192, #129 ) ) ;
#47 = APPLICATION_PROTOCOL_DEFINITION ( 'international standard', 'config_control_design', 1994, #226 ) ;
#48 = ADVANCED_FACE ( 'NONE', ( #106, #7 ), #189, .T. ) ;
#49 = PERSON_AND_ORGANIZATION ( #16, #8 ) ;
#50 = PERSON_AND_ORGANIZATION ( #16, #8 ) ;
#51 = CARTESIAN_POINT ( 'NONE',  ( 3.142333204958819625E-15, -9.757819552369537441E-17, 0.8999999999999999112 ) ) ;
#52 = PLANE ( 'NONE',  #199 ) ;
#53 = LOCAL_TIME ( 7, 47, 6.000000000000000000, #28 ) ;
#54 = CARTESIAN_POINT ( 'NONE',  ( 0.0000000000000000000, 0.0000000000000000000, 0.0000000000000000000 ) ) ;
#55 = CARTESIAN_POINT ( 'NONE',  ( -9.831781012932406109E-37, 0.0000000000000000000, -2.815934000148506281E-22 ) ) ;
#56 = FACE_OUTER_BOUND ( 'NONE', #240, .T. ) ;
#57 = VERTEX_POINT ( 'NONE', #118 ) ;
#58 = CIRCLE ( 'NONE', #222, 0.2999999999999999334 ) ;
#59 =( NAMED_UNIT ( * ) SI_UNIT ( $, .STERADIAN. ) SOLID_ANGLE_UNIT ( ) );
#60 = APPROVAL_STATUS ( 'not_yet_approved' ) ;
#61 = DIRECTION ( 'NONE',  ( 3.491481338843133355E-15, -0.0000000000000000000, 1.000000000000000000 ) ) ;
#62 = DIRECTION ( 'NONE',  ( 0.0000000000000000000, 0.0000000000000000000, 1.000000000000000000 ) ) ;
#63 = SECURITY_CLASSIFICATION_LEVEL ( 'unclassified' ) ;
#64 = EDGE_LOOP ( 'NONE', ( #228 ) ) ;
#65 = CARTESIAN_POINT ( 'NONE',  ( 3.142333204958819625E-15, -9.757819552369537441E-17, 0.8999999999999999112 ) ) ;
#66 = PERSON_AND_ORGANIZATION ( #16, #8 ) ;
#67 = DIRECTION ( 'NONE',  ( 3.491481338843133355E-15, -0.0000000000000000000, 1.000000000000000000 ) ) ;
#68 = CARTESIAN_POINT ( 'NONE',  ( -4.915890506466203054E-37, 0.0000000000000000000, -1.407967000074253141E-22 ) ) ;
#69 = AXIS2_PLACEMENT_3D ( 'NONE', #54, #76, #38 ) ;
#70 = EDGE_CURVE ( 'NONE', #40, #40, #207, .T. ) ;
#71 = ORIENTED_EDGE ( 'NONE', *, *, #224, .T. ) ;
#72 = CARTESIAN_POINT ( 'NONE',  ( 2.621331345744635246E-14, 0.0000000000000000000, 7.507791368042044056 ) ) ;
#73 = EDGE_LOOP ( 'NONE', ( #15 ) ) ;
#74 =( LENGTH_UNIT ( ) NAMED_UNIT ( * ) SI_UNIT ( .MILLI., .METRE. ) );
#75 = CONICAL_SURFACE ( 'NONE', #177, 1.600000000000000089, 0.7853981633974512766 ) ;
#76 = DIRECTION ( 'NONE',  ( 3.491481338843133355E-15, -0.0000000000000000000, 1.000000000000000000 ) ) ;
#77 = ORIENTED_EDGE ( 'NONE', *, *, #115, .T. ) ;
#78 = FACE_OUTER_BOUND ( 'NONE', #162, .T. ) ;
#79 = CIRCLE ( 'NONE', #133, 0.3681483474218595342 ) ;
#80 = CIRCLE ( 'NONE', #113, 0.2999999999999999334 ) ;
#81 = VERTEX_POINT ( 'NONE', #137 ) ;
#82 = MECHANICAL_CONTEXT ( 'NONE', #226, 'mechanical' ) ;
#83 = CIRCLE ( 'NONE', #215, 2.000000000000000000 ) ;
#84 = CALENDAR_DATE ( 2021, 9, 11 ) ;
#85 = FACE_OUTER_BOUND ( 'NONE', #22, .T. ) ;
#86 = DIRECTION ( 'NONE',  ( 1.000000000000000000, 0.0000000000000000000, -3.469446951953614189E-15 ) ) ;
#87 = DATE_AND_TIME ( #107, #53 ) ;
#88 = DIRECTION ( 'NONE',  ( 1.000000000000000000, 0.0000000000000000000, -3.491481338843133355E-15 ) ) ;
#89 = CARTESIAN_POINT ( 'NONE',  ( 1.326762908760390423E-13, 0.0000000000000000000, 38.00000000000000000 ) ) ;
#90 = CARTESIAN_POINT ( 'NONE',  ( 0.0000000000000000000, 0.0000000000000000000, 0.0000000000000000000 ) ) ;
#91 = DIRECTION ( 'NONE',  ( 1.000000000000000000, 0.0000000000000000000, -3.469446951953614189E-15 ) ) ;
#92 = DIRECTION ( 'NONE',  ( -3.491481338843133355E-15, 0.0000000000000000000, -1.000000000000000000 ) ) ;
#93 = FACE_OUTER_BOUND ( 'NONE', #35, .T. ) ;
#94 = CARTESIAN_POINT ( 'NONE',  ( 1.326762908760390423E-13, 0.0000000000000000000, 38.00000000000000000 ) ) ;
#95 = ADVANCED_FACE ( 'NONE', ( #186, #85 ), #114, .F. ) ;
#96 = EDGE_LOOP ( 'NONE', ( #43 ) ) ;
#97 = APPROVAL_PERSON_ORGANIZATION ( #201, #219, #198 ) ;
#98 = CC_DESIGN_DATE_AND_TIME_ASSIGNMENT ( #87, #218, ( #237 ) ) ;
#99 = CLOSED_SHELL ( 'NONE', ( #42, #145, #208 ) ) ;
#100 = EDGE_CURVE ( 'NONE', #2, #2, #83, .T. ) ;
#101 = CARTESIAN_POINT ( 'NONE',  ( 0.3681483474218644192, 0.0000000000000000000, 1.417638090205027179 ) ) ;
#102 = APPROVAL_DATE_TIME ( #24, #39 ) ;
#103 = APPROVAL_PERSON_ORGANIZATION ( #50, #39, #141 ) ;
#104 = APPROVAL_DATE_TIME ( #144, #219 ) ;
#105 = PERSON_AND_ORGANIZATION_ROLE ( 'creator' ) ;
#106 = FACE_OUTER_BOUND ( 'NONE', #73, .T. ) ;
#107 = CALENDAR_DATE ( 2021, 9, 11 ) ;
#108 = DIRECTION ( 'NONE',  ( 1.000000000000000000, 0.0000000000000000000, -3.469446951953614189E-15 ) ) ;
#109 = LOCAL_TIME ( 7, 47, 6.000000000000000000, #124 ) ;
#110 = CARTESIAN_POINT ( 'NONE',  ( 1.312796983405018142E-13, 0.0000000000000000000, 37.60000000000000142 ) ) ;
#111 = APPLICATION_CONTEXT ( 'configuration controlled 3d designs of mechanical parts and assemblies' ) ;
#112 = CARTESIAN_POINT ( 'NONE',  ( 3.142333204958819625E-15, 0.0000000000000000000, 0.8999999999999999112 ) ) ;
#113 = AXIS2_PLACEMENT_3D ( 'NONE', #128, #130, #203 ) ;
#114 = TOROIDAL_SURFACE ( 'NONE', #13, 2.299999999999999378, 2.000000000000000000 ) ;
#115 = EDGE_CURVE ( 'NONE', #81, #81, #140, .T. ) ;
#116 = VERTEX_POINT ( 'NONE', #196 ) ;
#117 = CARTESIAN_POINT ( 'NONE',  ( 2.621331345744635246E-14, 0.0000000000000000000, 7.507791368042044056 ) ) ;
#118 = CARTESIAN_POINT ( 'NONE',  ( 1.600000000000132871, 0.0000000000000000000, 37.99999999999999289 ) ) ;
#119 = ADVANCED_BREP_SHAPE_REPRESENTATION ( '334858', ( #230, #159, #3 ), #120 ) ;
#120 =( GEOMETRIC_REPRESENTATION_CONTEXT ( 3 ) GLOBAL_UNCERTAINTY_ASSIGNED_CONTEXT ( ( #26 ) ) GLOBAL_UNIT_ASSIGNED_CONTEXT ( ( #74, #175, #59 ) ) REPRESENTATION_CONTEXT ( 'NONE', 'WORKASPACE' ) );
#121 = DIRECTION ( 'NONE',  ( -1.000000000000000000, 0.0000000000000000000, 4.336808689942017736E-15 ) ) ;
#122 = CALENDAR_DATE ( 2021, 9, 11 ) ;
#123 = PRODUCT_DEFINITION_FORMATION_WITH_SPECIFIED_SOURCE ( 'ANY', '', #136, .NOT_KNOWN. ) ;
#124 = COORDINATED_UNIVERSAL_TIME_OFFSET ( 1, 0, .AHEAD. ) ;
#125 = PLANE ( 'NONE',  #179 ) ;
#126 = PERSON_AND_ORGANIZATION ( #16, #8 ) ;
#127 = DIRECTION ( 'NONE',  ( -3.491481338843133355E-15, 0.0000000000000000000, -1.000000000000000000 ) ) ;
#128 = CARTESIAN_POINT ( 'NONE',  ( 3.142333204958818836E-15, 0.0000000000000000000, 0.8999999999999996891 ) ) ;
#129 = ADVANCED_FACE ( 'NONE', ( #206 ), #204, .T. ) ;
#130 = DIRECTION ( 'NONE',  ( 3.491481338843133355E-15, -0.0000000000000000000, 1.000000000000000000 ) ) ;
#131 = APPROVAL ( #214, 'UNSPECIFIED' ) ;
#132 = CC_DESIGN_APPROVAL ( #39, ( #237 ) ) ;
#133 = AXIS2_PLACEMENT_3D ( 'NONE', #45, #61, #143 ) ;
#134 = PLANE ( 'NONE',  #194 ) ;
#135 = CIRCLE ( 'NONE', #220, 1.600000000000000089 ) ;
#136 = PRODUCT ( '334858', '334858', '', ( #82 ) ) ;
#137 = CARTESIAN_POINT ( 'NONE',  ( 0.2999999999999999334, 0.0000000000000000000, -1.047444683246339588E-15 ) ) ;
#138 = DIRECTION ( 'NONE',  ( -3.491481338843133355E-15, 0.0000000000000000000, -1.000000000000000000 ) ) ;
#139 = FACE_BOUND ( 'NONE', #170, .T. ) ;
#140 = CIRCLE ( 'NONE', #18, 0.2999999999999999334 ) ;
#141 = APPROVAL_ROLE ( '' ) ;
#142 = CC_DESIGN_PERSON_AND_ORGANIZATION_ASSIGNMENT ( #126, #146, ( #237 ) ) ;
#143 = DIRECTION ( 'NONE',  ( 1.000000000000000000, 0.0000000000000000000, -3.534017240859013012E-15 ) ) ;
#144 = DATE_AND_TIME ( #122, #109 ) ;
#145 = ADVANCED_FACE ( 'NONE', ( #32, #171 ), #235, .T. ) ;
#146 = PERSON_AND_ORGANIZATION_ROLE ( 'classification_officer' ) ;
#147 = EDGE_LOOP ( 'NONE', ( #9 ) ) ;
#148 = DIRECTION ( 'NONE',  ( -3.491481338843133355E-15, 0.0000000000000000000, -1.000000000000000000 ) ) ;
#149 = PERSON_AND_ORGANIZATION ( #16, #8 ) ;
#150 = DATE_AND_TIME ( #84, #202 ) ;
#151 = DIRECTION ( 'NONE',  ( 1.000000000000000000, 0.0000000000000000000, -3.491481338843132961E-15 ) ) ;
#152 = CARTESIAN_POINT ( 'NONE',  ( 0.0000000000000000000, 0.0000000000000000000, 0.0000000000000000000 ) ) ;
#153 = DIRECTION ( 'NONE',  ( 3.491481338843133355E-15, -0.0000000000000000000, 1.000000000000000000 ) ) ;
#154 = DIRECTION ( 'NONE',  ( 3.491481338843133355E-15, -0.0000000000000000000, 1.000000000000000000 ) ) ;
#155 = DIRECTION ( 'NONE',  ( 3.491481338843133355E-15, -0.0000000000000000000, 1.000000000000000000 ) ) ;
#156 = ORIENTED_EDGE ( 'NONE', *, *, #100, .F. ) ;
#157 = EDGE_LOOP ( 'NONE', ( #178 ) ) ;
#158 = CC_DESIGN_APPROVAL ( #131, ( #123 ) ) ;
#159 = MANIFOLD_SOLID_BREP ( 'Corps-Déplacer/Copier1[2]', #99 ) ;
#160 = EDGE_LOOP ( 'NONE', ( #71 ) ) ;
#161 = DIRECTION ( 'NONE',  ( 1.000000000000000000, 0.0000000000000000000, -3.491481338843133355E-15 ) ) ;
#162 = EDGE_LOOP ( 'NONE', ( #156 ) ) ;
#163 = CC_DESIGN_PERSON_AND_ORGANIZATION_ASSIGNMENT ( #49, #6, ( #123 ) ) ;
#164 = COORDINATED_UNIVERSAL_TIME_OFFSET ( 1, 0, .AHEAD. ) ;
#165 = DATE_TIME_ROLE ( 'creation_date' ) ;
#166 = AXIS2_PLACEMENT_3D ( 'NONE', #117, #153, #86 ) ;
#167 = AXIS2_PLACEMENT_3D ( 'NONE', #110, #155, #91 ) ;
#168 = DIRECTION ( 'NONE',  ( 3.491481338843133355E-15, -0.0000000000000000000, 1.000000000000000000 ) ) ;
#169 = APPLICATION_PROTOCOL_DEFINITION ( 'international standard', 'config_control_design', 1994, #111 ) ;
#170 = EDGE_LOOP ( 'NONE', ( #174 ) ) ;
#171 = FACE_OUTER_BOUND ( 'NONE', #157, .T. ) ;
#172 = DIRECTION ( 'NONE',  ( -1.000000000000000000, 0.0000000000000000000, 3.491481338843133355E-15 ) ) ;
#173 = PRODUCT_DEFINITION_SHAPE ( 'NONE', 'NONE',  #17 ) ;
#174 = ORIENTED_EDGE ( 'NONE', *, *, #211, .F. ) ;
#175 =( NAMED_UNIT ( * ) PLANE_ANGLE_UNIT ( ) SI_UNIT ( $, .RADIAN. ) );
#176 = ORIENTED_EDGE ( 'NONE', *, *, #211, .T. ) ;
#177 = AXIS2_PLACEMENT_3D ( 'NONE', #212, #138, #121 ) ;
#178 = ORIENTED_EDGE ( 'NONE', *, *, #224, .F. ) ;
#179 = AXIS2_PLACEMENT_3D ( 'NONE', #68, #127, #172 ) ;
#180 = CC_DESIGN_PERSON_AND_ORGANIZATION_ASSIGNMENT ( #5, #185, ( #17 ) ) ;
#181 = VERTEX_POINT ( 'NONE', #101 ) ;
#182 = SHAPE_DEFINITION_REPRESENTATION ( #173, #119 ) ;
#183 = ORIENTED_EDGE ( 'NONE', *, *, #115, .F. ) ;
#184 = CARTESIAN_POINT ( 'NONE',  ( 2.000000000000026201, 0.0000000000000000000, 7.507791368042036950 ) ) ;
#185 = PERSON_AND_ORGANIZATION_ROLE ( 'creator' ) ;
#186 = FACE_OUTER_BOUND ( 'NONE', #234, .T. ) ;
#187 = CARTESIAN_POINT ( 'NONE',  ( 3.142333204958818836E-15, 0.0000000000000000000, 0.8999999999999996891 ) ) ;
#188 = CALENDAR_DATE ( 2021, 9, 11 ) ;
#189 = CYLINDRICAL_SURFACE ( 'NONE', #21, 2.000000000000000000 ) ;
#190 = CC_DESIGN_DATE_AND_TIME_ASSIGNMENT ( #229, #165, ( #17 ) ) ;
#191 = FACE_OUTER_BOUND ( 'NONE', #147, .T. ) ;
#192 = ADVANCED_FACE ( 'NONE', ( #242, #78 ), #36, .T. ) ;
#193 = FACE_OUTER_BOUND ( 'NONE', #160, .T. ) ;
#194 = AXIS2_PLACEMENT_3D ( 'NONE', #94, #236, #161 ) ;
#195 = EDGE_LOOP ( 'NONE', ( #238 ) ) ;
#196 = CARTESIAN_POINT ( 'NONE',  ( 0.3000000000000030420, 0.0000000000000000000, 0.8999999999999985789 ) ) ;
#197 = CALENDAR_DATE ( 2021, 9, 11 ) ;
#198 = APPROVAL_ROLE ( '' ) ;
#199 = AXIS2_PLACEMENT_3D ( 'NONE', #65, #148, #29 ) ;
#200 = APPROVAL_ROLE ( '' ) ;
#201 = PERSON_AND_ORGANIZATION ( #16, #8 ) ;
#202 = LOCAL_TIME ( 7, 47, 6.000000000000000000, #216 ) ;
#203 = DIRECTION ( 'NONE',  ( 1.000000000000000000, 0.0000000000000000000, -3.614007241618349165E-15 ) ) ;
#204 = PLANE ( 'NONE',  #19 ) ;
#205 = EDGE_CURVE ( 'NONE', #37, #37, #58, .T. ) ;
#206 = FACE_OUTER_BOUND ( 'NONE', #96, .T. ) ;
#207 = CIRCLE ( 'NONE', #167, 2.000000000000000000 ) ;
#208 = ADVANCED_FACE ( 'NONE', ( #193 ), #52, .F. ) ;
#209 = APPROVAL_PERSON_ORGANIZATION ( #149, #131, #200 ) ;
#210 = CARTESIAN_POINT ( 'NONE',  ( 0.3000000000000030420, 0.0000000000000000000, 0.8999999999999985789 ) ) ;
#211 = EDGE_CURVE ( 'NONE', #57, #57, #135, .T. ) ;
#212 = CARTESIAN_POINT ( 'NONE',  ( 1.326762908760390423E-13, 0.0000000000000000000, 38.00000000000000000 ) ) ;
#213 = COORDINATED_UNIVERSAL_TIME_OFFSET ( 1, 0, .AHEAD. ) ;
#214 = APPROVAL_STATUS ( 'not_yet_approved' ) ;
#215 = AXIS2_PLACEMENT_3D ( 'NONE', #72, #12, #108 ) ;
#216 = COORDINATED_UNIVERSAL_TIME_OFFSET ( 1, 0, .AHEAD. ) ;
#217 = DIRECTION ( 'NONE',  ( 1.000000000000000000, 0.0000000000000000000, -4.336808689942017736E-15 ) ) ;
#218 = DATE_TIME_ROLE ( 'classification_date' ) ;
#219 = APPROVAL ( #233, 'UNSPECIFIED' ) ;
#220 = AXIS2_PLACEMENT_3D ( 'NONE', #89, #168, #217 ) ;
#221 = DIRECTION ( 'NONE',  ( 1.000000000000000000, 0.0000000000000000000, -3.614007241618349165E-15 ) ) ;
#222 = AXIS2_PLACEMENT_3D ( 'NONE', #187, #232, #221 ) ;
#223 = EDGE_LOOP ( 'NONE', ( #77 ) ) ;
#224 = EDGE_CURVE ( 'NONE', #116, #116, #80, .T. ) ;
#225 = LOCAL_TIME ( 7, 47, 6.000000000000000000, #164 ) ;
#226 = APPLICATION_CONTEXT ( 'configuration controlled 3d designs of mechanical parts and assemblies' ) ;
#227 = ORIENTED_EDGE ( 'NONE', *, *, #205, .T. ) ;
#228 = ORIENTED_EDGE ( 'NONE', *, *, #100, .T. ) ;
#229 = DATE_AND_TIME ( #188, #225 ) ;
#230 = MANIFOLD_SOLID_BREP ( 'Corps-Déplacer/Copier1[1]', #46 ) ;
#231 = APPROVAL_DATE_TIME ( #150, #131 ) ;
#232 = DIRECTION ( 'NONE',  ( 3.491481338843133355E-15, -0.0000000000000000000, 1.000000000000000000 ) ) ;
#233 = APPROVAL_STATUS ( 'not_yet_approved' ) ;
#234 = EDGE_LOOP ( 'NONE', ( #227 ) ) ;
#235 = CYLINDRICAL_SURFACE ( 'NONE', #69, 0.2999999999999999334 ) ;
#236 = DIRECTION ( 'NONE',  ( 3.491481338843133355E-15, -0.0000000000000000000, 1.000000000000000000 ) ) ;
#237 = SECURITY_CLASSIFICATION ( '', '', #63 ) ;
#238 = ORIENTED_EDGE ( 'NONE', *, *, #25, .T. ) ;
#239 = CC_DESIGN_PERSON_AND_ORGANIZATION_ASSIGNMENT ( #66, #41, ( #136 ) ) ;
#240 = EDGE_LOOP ( 'NONE', ( #176 ) ) ;
#241 = CC_DESIGN_PERSON_AND_ORGANIZATION_ASSIGNMENT ( #30, #105, ( #123 ) ) ;
#242 = FACE_BOUND ( 'NONE', #195, .T. ) ;
#243 = ADVANCED_FACE ( 'NONE', ( #191, #139 ), #75, .T. ) ;
ENDSEC;
END-ISO-10303-21;
