ISO-10303-21;
HEADER;
FILE_DESCRIPTION (( 'STEP AP203' ),
    '1' );
FILE_NAME ('334857.step',
    '2021-11-09T06:47:05',
    ( '' ),
    ( '' ),
    'SwSTEP 2.0',
    'SolidWorks 2019',
    '' );
FILE_SCHEMA (( 'CONFIG_CONTROL_DESIGN' ));
ENDSEC;

DATA;
#1 = DIRECTION ( 'NONE',  ( 3.491481338843133355E-15, -0.0000000000000000000, 1.000000000000000000 ) ) ;
#2 = ORIENTED_EDGE ( 'NONE', *, *, #140, .F. ) ;
#3 = PERSON_AND_ORGANIZATION ( #193, #216 ) ;
#4 = DIRECTION ( 'NONE',  ( -3.491481338843133355E-15, 0.0000000000000000000, -1.000000000000000000 ) ) ;
#5 = ORIENTED_EDGE ( 'NONE', *, *, #113, .F. ) ;
#6 = VERTEX_POINT ( 'NONE', #27 ) ;
#7 = CARTESIAN_POINT ( 'NONE',  ( 2.618611004132349228E-15, 0.0000000000000000000, 0.7499999999999997780 ) ) ;
#8 = APPROVAL_ROLE ( '' ) ;
#9 = APPROVAL_PERSON_ORGANIZATION ( #86, #132, #77 ) ;
#10 = VERTEX_POINT ( 'NONE', #162 ) ;
#11 = CIRCLE ( 'NONE', #206, 2.000000000000000000 ) ;
#12 = FACE_OUTER_BOUND ( 'NONE', #197, .T. ) ;
#13 = FACE_OUTER_BOUND ( 'NONE', #156, .T. ) ;
#14 = ADVANCED_FACE ( 'NONE', ( #12, #215 ), #92, .T. ) ;
#15 = PERSON_AND_ORGANIZATION_ROLE ( 'classification_officer' ) ;
#16 = CIRCLE ( 'NONE', #76, 0.2499999999999997780 ) ;
#17 = PRODUCT_DEFINITION_FORMATION_WITH_SPECIFIED_SOURCE ( 'ANY', '', #68, .NOT_KNOWN. ) ;
#18 = CARTESIAN_POINT ( 'NONE',  ( 0.0000000000000000000, 0.0000000000000000000, 0.0000000000000000000 ) ) ;
#19 = EDGE_CURVE ( 'NONE', #25, #25, #178, .T. ) ;
#20 = ADVANCED_FACE ( 'NONE', ( #13 ), #94, .F. ) ;
#21 = FACE_OUTER_BOUND ( 'NONE', #93, .T. ) ;
#22 = CALENDAR_DATE ( 2021, 9, 11 ) ;
#23 = CARTESIAN_POINT ( 'NONE',  ( 1.326762908760390423E-13, 0.0000000000000000000, 38.00000000000000000 ) ) ;
#24 = DIRECTION ( 'NONE',  ( -1.000000000000000000, 0.0000000000000000000, 3.491481338843133355E-15 ) ) ;
#25 = VERTEX_POINT ( 'NONE', #106 ) ;
#26 = AXIS2_PLACEMENT_3D ( 'NONE', #49, #123, #191 ) ;
#27 = CARTESIAN_POINT ( 'NONE',  ( 0.2499999999999997780, 0.0000000000000000000, -8.728706163041825261E-16 ) ) ;
#28 = DIRECTION ( 'NONE',  ( -3.491481338843133355E-15, 0.0000000000000000000, -1.000000000000000000 ) ) ;
#29 = AXIS2_PLACEMENT_3D ( 'NONE', #173, #117, #122 ) ;
#30 = CARTESIAN_POINT ( 'NONE',  ( 1.326762908760390423E-13, 0.0000000000000000000, 38.00000000000000000 ) ) ;
#31 = APPROVAL_DATE_TIME ( #71, #212 ) ;
#32 = LOCAL_TIME ( 7, 47, 5.000000000000000000, #61 ) ;
#33 = ORIENTED_EDGE ( 'NONE', *, *, #19, .T. ) ;
#34 = CC_DESIGN_PERSON_AND_ORGANIZATION_ASSIGNMENT ( #73, #37, ( #17 ) ) ;
#35 = CALENDAR_DATE ( 2021, 9, 11 ) ;
#36 = AXIS2_PLACEMENT_3D ( 'NONE', #18, #83, #205 ) ;
#37 = PERSON_AND_ORGANIZATION_ROLE ( 'design_supplier' ) ;
#38 = APPROVAL_PERSON_ORGANIZATION ( #75, #212, #166 ) ;
#39 = CARTESIAN_POINT ( 'NONE',  ( 2.634111054413196515E-14, 0.0000000000000000000, 7.544393908420492956 ) ) ;
#40 = CC_DESIGN_PERSON_AND_ORGANIZATION_ASSIGNMENT ( #104, #192, ( #68 ) ) ;
#41 = CARTESIAN_POINT ( 'NONE',  ( -9.831781012932406109E-37, 0.0000000000000000000, -2.815934000148506281E-22 ) ) ;
#42 = EDGE_LOOP ( 'NONE', ( #144 ) ) ;
#43 = VERTEX_POINT ( 'NONE', #146 ) ;
#44 = FACE_BOUND ( 'NONE', #224, .T. ) ;
#45 = AXIS2_PLACEMENT_3D ( 'NONE', #41, #85, #185 ) ;
#46 = EDGE_LOOP ( 'NONE', ( #52 ) ) ;
#47 = DATE_AND_TIME ( #142, #32 ) ;
#48 = CARTESIAN_POINT ( 'NONE',  ( 2.618611004132349622E-15, -8.131516293641280790E-17, 0.7499999999999998890 ) ) ;
#49 = CARTESIAN_POINT ( 'NONE',  ( 0.0000000000000000000, 0.0000000000000000000, 0.0000000000000000000 ) ) ;
#50 = VERTEX_POINT ( 'NONE', #195 ) ;
#51 = PERSON_AND_ORGANIZATION ( #193, #216 ) ;
#52 = ORIENTED_EDGE ( 'NONE', *, *, #19, .F. ) ;
#53 = AXIS2_PLACEMENT_3D ( 'NONE', #100, #190, #154 ) ;
#54 = CARTESIAN_POINT ( 'NONE',  ( 2.618611004132349622E-15, -8.131516293641280790E-17, 0.7499999999999998890 ) ) ;
#55 = AXIS2_PLACEMENT_3D ( 'NONE', #23, #1, #203 ) ;
#56 = FACE_OUTER_BOUND ( 'NONE', #209, .T. ) ;
#57 = CC_DESIGN_DATE_AND_TIME_ASSIGNMENT ( #236, #111, ( #66 ) ) ;
#58 = CARTESIAN_POINT ( 'NONE',  ( 4.425934736357605608E-15, 0.0000000000000000000, 1.267638090205028600 ) ) ;
#59 = DIRECTION ( 'NONE',  ( 3.491481338843133355E-15, -0.0000000000000000000, 1.000000000000000000 ) ) ;
#60 = EDGE_LOOP ( 'NONE', ( #2 ) ) ;
#61 = COORDINATED_UNIVERSAL_TIME_OFFSET ( 1, 0, .AHEAD. ) ;
#62 = DIRECTION ( 'NONE',  ( 3.491481338843133355E-15, -0.0000000000000000000, 1.000000000000000000 ) ) ;
#63 = TOROIDAL_SURFACE ( 'NONE', #79, 2.250000000000000000, 2.000000000000000000 ) ;
#64 = EDGE_LOOP ( 'NONE', ( #72 ) ) ;
#65 = APPROVAL_STATUS ( 'not_yet_approved' ) ;
#66 = SECURITY_CLASSIFICATION ( '', '', #114 ) ;
#67 = VERTEX_POINT ( 'NONE', #88 ) ;
#68 = PRODUCT ( '334857', '334857', '', ( #188 ) ) ;
#69 = ADVANCED_FACE ( 'NONE', ( #243, #98 ), #63, .F. ) ;
#70 = ORIENTED_EDGE ( 'NONE', *, *, #194, .T. ) ;
#71 = DATE_AND_TIME ( #198, #238 ) ;
#72 = ORIENTED_EDGE ( 'NONE', *, *, #230, .T. ) ;
#73 = PERSON_AND_ORGANIZATION ( #193, #216 ) ;
#74 = MANIFOLD_SOLID_BREP ( 'Corps-Déplacer/Copier1[2]', #135 ) ;
#75 = PERSON_AND_ORGANIZATION ( #193, #216 ) ;
#76 = AXIS2_PLACEMENT_3D ( 'NONE', #7, #87, #81 ) ;
#77 = APPROVAL_ROLE ( '' ) ;
#78 = PERSON_AND_ORGANIZATION ( #193, #216 ) ;
#79 = AXIS2_PLACEMENT_3D ( 'NONE', #174, #59, #223 ) ;
#80 = CC_DESIGN_PERSON_AND_ORGANIZATION_ASSIGNMENT ( #3, #102, ( #239 ) ) ;
#81 = DIRECTION ( 'NONE',  ( 1.000000000000000000, 0.0000000000000000000, -3.469446951953617344E-15 ) ) ;
#82 = DIRECTION ( 'NONE',  ( 1.000000000000000000, 0.0000000000000000000, -3.469446951953614189E-15 ) ) ;
#83 = DIRECTION ( 'NONE',  ( 3.491481338843133355E-15, -0.0000000000000000000, 1.000000000000000000 ) ) ;
#84 = EDGE_LOOP ( 'NONE', ( #70 ) ) ;
#85 = DIRECTION ( 'NONE',  ( 3.491481338843133355E-15, -0.0000000000000000000, 1.000000000000000000 ) ) ;
#86 = PERSON_AND_ORGANIZATION ( #193, #216 ) ;
#87 = DIRECTION ( 'NONE',  ( 3.491481338843133355E-15, -0.0000000000000000000, 1.000000000000000000 ) ) ;
#88 = CARTESIAN_POINT ( 'NONE',  ( 2.000000000000026645, 0.0000000000000000000, 7.544393908420486738 ) ) ;
#89 = ADVANCED_FACE ( 'NONE', ( #44, #226 ), #159, .T. ) ;
#90 =( NAMED_UNIT ( * ) SI_UNIT ( $, .STERADIAN. ) SOLID_ANGLE_UNIT ( ) );
#91 = ADVANCED_FACE ( 'NONE', ( #56 ), #189, .T. ) ;
#92 = CONICAL_SURFACE ( 'NONE', #196, 1.600000000000000089, 0.7853981633974512766 ) ;
#93 = EDGE_LOOP ( 'NONE', ( #148 ) ) ;
#94 = PLANE ( 'NONE',  #169 ) ;
#95 = DATE_AND_TIME ( #130, #161 ) ;
#96 = CC_DESIGN_APPROVAL ( #132, ( #17 ) ) ;
#97 = DIRECTION ( 'NONE',  ( 3.491481338843133355E-15, -0.0000000000000000000, 1.000000000000000000 ) ) ;
#98 = FACE_OUTER_BOUND ( 'NONE', #126, .T. ) ;
#99 = APPROVAL_DATE_TIME ( #225, #155 ) ;
#100 = CARTESIAN_POINT ( 'NONE',  ( 1.326762908760390423E-13, 0.0000000000000000000, 38.00000000000000000 ) ) ;
#101 = ORIENTED_EDGE ( 'NONE', *, *, #194, .F. ) ;
#102 = PERSON_AND_ORGANIZATION_ROLE ( 'creator' ) ;
#103 = CARTESIAN_POINT ( 'NONE',  ( 1.312796983405018142E-13, 0.0000000000000000000, 37.60000000000000142 ) ) ;
#104 = PERSON_AND_ORGANIZATION ( #193, #216 ) ;
#105 = EDGE_CURVE ( 'NONE', #43, #43, #11, .T. ) ;
#106 = CARTESIAN_POINT ( 'NONE',  ( 0.2500000000000023870, 0.0000000000000000000, 0.7499999999999988898 ) ) ;
#107 = LOCAL_TIME ( 7, 47, 5.000000000000000000, #145 ) ;
#108 = AXIS2_PLACEMENT_3D ( 'NONE', #58, #62, #143 ) ;
#109 = EDGE_LOOP ( 'NONE', ( #235 ) ) ;
#110 = UNCERTAINTY_MEASURE_WITH_UNIT (LENGTH_MEASURE( 1.000000000000000082E-05 ), #210, 'distance_accuracy_value', 'NONE');
#111 = DATE_TIME_ROLE ( 'classification_date' ) ;
#112 = EDGE_CURVE ( 'NONE', #10, #10, #227, .T. ) ;
#113 = EDGE_CURVE ( 'NONE', #228, #228, #187, .T. ) ;
#114 = SECURITY_CLASSIFICATION_LEVEL ( 'unclassified' ) ;
#115 = APPROVAL_PERSON_ORGANIZATION ( #51, #155, #8 ) ;
#116 = DIRECTION ( 'NONE',  ( 1.000000000000000000, 0.0000000000000000000, -3.469446951953614189E-15 ) ) ;
#117 = DIRECTION ( 'NONE',  ( -3.491481338843133355E-15, 0.0000000000000000000, -1.000000000000000000 ) ) ;
#118 = AXIS2_PLACEMENT_3D ( 'NONE', #200, #234, #180 ) ;
#119 = DIRECTION ( 'NONE',  ( 1.000000000000000000, 0.0000000000000000000, -3.469446951953614189E-15 ) ) ;
#120 = ORIENTED_EDGE ( 'NONE', *, *, #112, .F. ) ;
#121 = DATE_TIME_ROLE ( 'creation_date' ) ;
#122 = DIRECTION ( 'NONE',  ( -1.000000000000000000, 0.0000000000000000000, 3.491481338843133355E-15 ) ) ;
#123 = DIRECTION ( 'NONE',  ( 0.0000000000000000000, 0.0000000000000000000, 1.000000000000000000 ) ) ;
#124 = APPROVAL_STATUS ( 'not_yet_approved' ) ;
#125 = AXIS2_PLACEMENT_3D ( 'NONE', #39, #172, #119 ) ;
#126 = EDGE_LOOP ( 'NONE', ( #120 ) ) ;
#127 = PERSON_AND_ORGANIZATION ( #193, #216 ) ;
#128 = CC_DESIGN_APPROVAL ( #155, ( #239 ) ) ;
#129 = DIRECTION ( 'NONE',  ( -1.000000000000000000, 0.0000000000000000000, 3.491481338843133355E-15 ) ) ;
#130 = CALENDAR_DATE ( 2021, 9, 11 ) ;
#131 = ADVANCED_FACE ( 'NONE', ( #21 ), #137, .T. ) ;
#132 = APPROVAL ( #65, 'UNSPECIFIED' ) ;
#133 = APPROVAL_STATUS ( 'not_yet_approved' ) ;
#134 = COORDINATED_UNIVERSAL_TIME_OFFSET ( 1, 0, .AHEAD. ) ;
#135 = CLOSED_SHELL ( 'NONE', ( #91, #237, #20 ) ) ;
#136 = APPLICATION_CONTEXT ( 'configuration controlled 3d designs of mechanical parts and assemblies' ) ;
#137 = PLANE ( 'NONE',  #53 ) ;
#138 = AXIS2_PLACEMENT_3D ( 'NONE', #153, #220, #186 ) ;
#139 = FACE_OUTER_BOUND ( 'NONE', #46, .T. ) ;
#140 = EDGE_CURVE ( 'NONE', #67, #67, #219, .T. ) ;
#141 = FACE_OUTER_BOUND ( 'NONE', #42, .T. ) ;
#142 = CALENDAR_DATE ( 2021, 9, 11 ) ;
#143 = DIRECTION ( 'NONE',  ( 1.000000000000000000, 0.0000000000000000000, -3.407851026954633398E-15 ) ) ;
#144 = ORIENTED_EDGE ( 'NONE', *, *, #140, .T. ) ;
#145 = COORDINATED_UNIVERSAL_TIME_OFFSET ( 1, 0, .AHEAD. ) ;
#146 = CARTESIAN_POINT ( 'NONE',  ( 2.000000000000131450, 0.0000000000000000000, 37.59999999999999432 ) ) ;
#147 = ORIENTED_EDGE ( 'NONE', *, *, #105, .T. ) ;
#148 = ORIENTED_EDGE ( 'NONE', *, *, #113, .T. ) ;
#149 = CC_DESIGN_PERSON_AND_ORGANIZATION_ASSIGNMENT ( #78, #15, ( #66 ) ) ;
#150 = COORDINATED_UNIVERSAL_TIME_OFFSET ( 1, 0, .AHEAD. ) ;
#151 = AXIS2_PLACEMENT_3D ( 'NONE', #242, #202, #116 ) ;
#152 = COORDINATED_UNIVERSAL_TIME_OFFSET ( 1, 0, .AHEAD. ) ;
#153 = CARTESIAN_POINT ( 'NONE',  ( 0.0000000000000000000, 0.0000000000000000000, 0.0000000000000000000 ) ) ;
#154 = DIRECTION ( 'NONE',  ( 1.000000000000000000, 0.0000000000000000000, -3.491481338843133355E-15 ) ) ;
#155 = APPROVAL ( #124, 'UNSPECIFIED' ) ;
#156 = EDGE_LOOP ( 'NONE', ( #33 ) ) ;
#157 = FACE_OUTER_BOUND ( 'NONE', #158, .T. ) ;
#158 = EDGE_LOOP ( 'NONE', ( #214 ) ) ;
#159 = CONICAL_SURFACE ( 'NONE', #125, 2.000000000000000000, 0.2617993877991428575 ) ;
#160 = FACE_OUTER_BOUND ( 'NONE', #84, .T. ) ;
#161 = LOCAL_TIME ( 7, 47, 5.000000000000000000, #134 ) ;
#162 = CARTESIAN_POINT ( 'NONE',  ( 0.3181483474218642638, 0.0000000000000000000, 1.267638090205027490 ) ) ;
#163 = CARTESIAN_POINT ( 'NONE',  ( 1.600000000000132871, 0.0000000000000000000, 37.99999999999999289 ) ) ;
#164 = DIRECTION ( 'NONE',  ( -1.000000000000000000, 0.0000000000000000000, 4.336808689942017736E-15 ) ) ;
#165 = DIRECTION ( 'NONE',  ( -3.491481338843133355E-15, 0.0000000000000000000, -1.000000000000000000 ) ) ;
#166 = APPROVAL_ROLE ( '' ) ;
#167 = PRODUCT_DEFINITION_SHAPE ( 'NONE', 'NONE',  #239 ) ;
#168 = DESIGN_CONTEXT ( 'detailed design', #136, 'design' ) ;
#169 = AXIS2_PLACEMENT_3D ( 'NONE', #54, #165, #129 ) ;
#170 = CC_DESIGN_APPROVAL ( #212, ( #66 ) ) ;
#171 = PRODUCT_RELATED_PRODUCT_CATEGORY ( 'detail', '', ( #68 ) ) ;
#172 = DIRECTION ( 'NONE',  ( 3.491481338843133355E-15, -0.0000000000000000000, 1.000000000000000000 ) ) ;
#173 = CARTESIAN_POINT ( 'NONE',  ( -4.915890506466203054E-37, 0.0000000000000000000, -1.407967000074253141E-22 ) ) ;
#174 = CARTESIAN_POINT ( 'NONE',  ( 2.618611004132349622E-15, 0.0000000000000000000, 0.7499999999999998890 ) ) ;
#175 = CYLINDRICAL_SURFACE ( 'NONE', #36, 2.000000000000000000 ) ;
#176 = LOCAL_TIME ( 7, 47, 5.000000000000000000, #150 ) ;
#177 = CC_DESIGN_PERSON_AND_ORGANIZATION_ASSIGNMENT ( #127, #201, ( #17 ) ) ;
#178 = CIRCLE ( 'NONE', #118, 0.2499999999999997780 ) ;
#179 = EDGE_LOOP ( 'NONE', ( #5 ) ) ;
#180 = DIRECTION ( 'NONE',  ( 1.000000000000000000, 0.0000000000000000000, -3.469446951953617344E-15 ) ) ;
#181 = SHAPE_DEFINITION_REPRESENTATION ( #167, #222 ) ;
#182 = AXIS2_PLACEMENT_3D ( 'NONE', #48, #4, #24 ) ;
#183 =( GEOMETRIC_REPRESENTATION_CONTEXT ( 3 ) GLOBAL_UNCERTAINTY_ASSIGNED_CONTEXT ( ( #110 ) ) GLOBAL_UNIT_ASSIGNED_CONTEXT ( ( #210, #207, #90 ) ) REPRESENTATION_CONTEXT ( 'NONE', 'WORKASPACE' ) );
#184 = ADVANCED_FACE ( 'NONE', ( #221 ), #208, .T. ) ;
#185 = DIRECTION ( 'NONE',  ( 1.000000000000000000, 0.0000000000000000000, -3.491481338843133355E-15 ) ) ;
#186 = DIRECTION ( 'NONE',  ( 1.000000000000000000, 0.0000000000000000000, -3.491481338843133355E-15 ) ) ;
#187 = CIRCLE ( 'NONE', #55, 1.600000000000000089 ) ;
#188 = MECHANICAL_CONTEXT ( 'NONE', #231, 'mechanical' ) ;
#189 = PLANE ( 'NONE',  #29 ) ;
#190 = DIRECTION ( 'NONE',  ( 3.491481338843133355E-15, -0.0000000000000000000, 1.000000000000000000 ) ) ;
#191 = DIRECTION ( 'NONE',  ( 1.000000000000000000, 0.0000000000000000000, 0.0000000000000000000 ) ) ;
#192 = PERSON_AND_ORGANIZATION_ROLE ( 'design_owner' ) ;
#193 = PERSON ( 'UNSPECIFIED', 'UNSPECIFIED', 'UNSPECIFIED', ('UNSPECIFIED'), ('UNSPECIFIED'), ('UNSPECIFIED') ) ;
#194 = EDGE_CURVE ( 'NONE', #6, #6, #241, .T. ) ;
#195 = CARTESIAN_POINT ( 'NONE',  ( 0.2500000000000023870, 0.0000000000000000000, 0.7499999999999988898 ) ) ;
#196 = AXIS2_PLACEMENT_3D ( 'NONE', #30, #28, #164 ) ;
#197 = EDGE_LOOP ( 'NONE', ( #147 ) ) ;
#198 = CALENDAR_DATE ( 2021, 9, 11 ) ;
#199 = CC_DESIGN_SECURITY_CLASSIFICATION ( #66, ( #17 ) ) ;
#200 = CARTESIAN_POINT ( 'NONE',  ( 2.618611004132349228E-15, 0.0000000000000000000, 0.7499999999999997780 ) ) ;
#201 = PERSON_AND_ORGANIZATION_ROLE ( 'creator' ) ;
#202 = DIRECTION ( 'NONE',  ( 3.491481338843133355E-15, -0.0000000000000000000, 1.000000000000000000 ) ) ;
#203 = DIRECTION ( 'NONE',  ( 1.000000000000000000, 0.0000000000000000000, -4.336808689942017736E-15 ) ) ;
#204 = ORIENTED_EDGE ( 'NONE', *, *, #112, .T. ) ;
#205 = DIRECTION ( 'NONE',  ( 1.000000000000000000, 0.0000000000000000000, -3.491481338843133355E-15 ) ) ;
#206 = AXIS2_PLACEMENT_3D ( 'NONE', #103, #97, #82 ) ;
#207 =( NAMED_UNIT ( * ) PLANE_ANGLE_UNIT ( ) SI_UNIT ( $, .RADIAN. ) );
#208 = PLANE ( 'NONE',  #182 ) ;
#209 = EDGE_LOOP ( 'NONE', ( #101 ) ) ;
#210 =( LENGTH_UNIT ( ) NAMED_UNIT ( * ) SI_UNIT ( .MILLI., .METRE. ) );
#211 = APPLICATION_PROTOCOL_DEFINITION ( 'international standard', 'config_control_design', 1994, #231 ) ;
#212 = APPROVAL ( #133, 'UNSPECIFIED' ) ;
#213 = APPLICATION_PROTOCOL_DEFINITION ( 'international standard', 'config_control_design', 1994, #136 ) ;
#214 = ORIENTED_EDGE ( 'NONE', *, *, #105, .F. ) ;
#215 = FACE_BOUND ( 'NONE', #179, .T. ) ;
#216 = ORGANIZATION ( 'UNSPECIFIED', 'UNSPECIFIED', '' ) ;
#217 = ADVANCED_FACE ( 'NONE', ( #157, #141 ), #175, .T. ) ;
#218 = CC_DESIGN_DATE_AND_TIME_ASSIGNMENT ( #47, #121, ( #239 ) ) ;
#219 = CIRCLE ( 'NONE', #151, 2.000000000000000000 ) ;
#220 = DIRECTION ( 'NONE',  ( 3.491481338843133355E-15, -0.0000000000000000000, 1.000000000000000000 ) ) ;
#221 = FACE_OUTER_BOUND ( 'NONE', #109, .T. ) ;
#222 = ADVANCED_BREP_SHAPE_REPRESENTATION ( '334857', ( #232, #74, #26 ), #183 ) ;
#223 = DIRECTION ( 'NONE',  ( 1.000000000000000000, 0.0000000000000000000, -3.491481338843132961E-15 ) ) ;
#224 = EDGE_LOOP ( 'NONE', ( #204 ) ) ;
#225 = DATE_AND_TIME ( #22, #107 ) ;
#226 = FACE_OUTER_BOUND ( 'NONE', #60, .T. ) ;
#227 = CIRCLE ( 'NONE', #108, 0.3181483474218598229 ) ;
#228 = VERTEX_POINT ( 'NONE', #163 ) ;
#229 = CYLINDRICAL_SURFACE ( 'NONE', #138, 0.2499999999999997780 ) ;
#230 = EDGE_CURVE ( 'NONE', #50, #50, #16, .T. ) ;
#231 = APPLICATION_CONTEXT ( 'configuration controlled 3d designs of mechanical parts and assemblies' ) ;
#232 = MANIFOLD_SOLID_BREP ( 'Corps-Déplacer/Copier1[1]', #233 ) ;
#233 = CLOSED_SHELL ( 'NONE', ( #217, #14, #131, #69, #89, #184 ) ) ;
#234 = DIRECTION ( 'NONE',  ( 3.491481338843133355E-15, -0.0000000000000000000, 1.000000000000000000 ) ) ;
#235 = ORIENTED_EDGE ( 'NONE', *, *, #230, .F. ) ;
#236 = DATE_AND_TIME ( #35, #176 ) ;
#237 = ADVANCED_FACE ( 'NONE', ( #160, #139 ), #229, .T. ) ;
#238 = LOCAL_TIME ( 7, 47, 5.000000000000000000, #152 ) ;
#239 = PRODUCT_DEFINITION ( 'UNKNOWN', '', #17, #168 ) ;
#240 = APPROVAL_DATE_TIME ( #95, #132 ) ;
#241 = CIRCLE ( 'NONE', #45, 0.2499999999999997780 ) ;
#242 = CARTESIAN_POINT ( 'NONE',  ( 2.634111054413196515E-14, 0.0000000000000000000, 7.544393908420492956 ) ) ;
#243 = FACE_OUTER_BOUND ( 'NONE', #64, .T. ) ;
ENDSEC;
END-ISO-10303-21;
