ISO-10303-21;
HEADER;
FILE_DESCRIPTION (( 'STEP AP203' ),
    '1' );
FILE_NAME ('334856.step',
    '2021-11-09T06:47:05',
    ( '' ),
    ( '' ),
    'SwSTEP 2.0',
    'SolidWorks 2019',
    '' );
FILE_SCHEMA (( 'CONFIG_CONTROL_DESIGN' ));
ENDSEC;

DATA;
#1 = CARTESIAN_POINT ( 'NONE',  ( 1.326762908760390423E-13, 0.0000000000000000000, 38.00000000000000000 ) ) ;
#2 = APPROVAL ( #77, 'UNSPECIFIED' ) ;
#3 =( GEOMETRIC_REPRESENTATION_CONTEXT ( 3 ) GLOBAL_UNCERTAINTY_ASSIGNED_CONTEXT ( ( #192 ) ) GLOBAL_UNIT_ASSIGNED_CONTEXT ( ( #175, #72, #7 ) ) REPRESENTATION_CONTEXT ( 'NONE', 'WORKASPACE' ) );
#4 = PERSON_AND_ORGANIZATION ( #228, #142 ) ;
#5 = ORIENTED_EDGE ( 'NONE', *, *, #226, .F. ) ;
#6 = CYLINDRICAL_SURFACE ( 'NONE', #67, 0.2000000000000000944 ) ;
#7 =( NAMED_UNIT ( * ) SI_UNIT ( $, .STERADIAN. ) SOLID_ANGLE_UNIT ( ) );
#8 = AXIS2_PLACEMENT_3D ( 'NONE', #182, #75, #28 ) ;
#9 = DIRECTION ( 'NONE',  ( 1.000000000000000000, 0.0000000000000000000, -3.491481338843133750E-15 ) ) ;
#10 = COORDINATED_UNIVERSAL_TIME_OFFSET ( 1, 0, .AHEAD. ) ;
#11 = DATE_AND_TIME ( #240, #46 ) ;
#12 = DIRECTION ( 'NONE',  ( 3.491481338843133355E-15, -0.0000000000000000000, 1.000000000000000000 ) ) ;
#13 = APPLICATION_CONTEXT ( 'configuration controlled 3d designs of mechanical parts and assemblies' ) ;
#14 = ORIENTED_EDGE ( 'NONE', *, *, #211, .F. ) ;
#15 = ADVANCED_FACE ( 'NONE', ( #153, #74 ), #6, .T. ) ;
#16 = DIRECTION ( 'NONE',  ( -1.000000000000000000, 0.0000000000000000000, 3.491481338843133355E-15 ) ) ;
#17 = PRODUCT_DEFINITION_FORMATION_WITH_SPECIFIED_SOURCE ( 'ANY', '', #202, .NOT_KNOWN. ) ;
#18 = AXIS2_PLACEMENT_3D ( 'NONE', #236, #139, #45 ) ;
#19 = AXIS2_PLACEMENT_3D ( 'NONE', #199, #36, #242 ) ;
#20 = AXIS2_PLACEMENT_3D ( 'NONE', #29, #57, #9 ) ;
#21 = ADVANCED_FACE ( 'NONE', ( #95 ), #158, .T. ) ;
#22 = EDGE_LOOP ( 'NONE', ( #83 ) ) ;
#23 = CARTESIAN_POINT ( 'NONE',  ( 2.646890763081756838E-14, 0.0000000000000000000, 7.580996448798941856 ) ) ;
#24 = PERSON_AND_ORGANIZATION ( #228, #142 ) ;
#25 = DESIGN_CONTEXT ( 'detailed design', #13, 'design' ) ;
#26 = APPROVAL_STATUS ( 'not_yet_approved' ) ;
#27 = CARTESIAN_POINT ( 'NONE',  ( 2.000000000000131450, 0.0000000000000000000, 37.59999999999999432 ) ) ;
#28 = DIRECTION ( 'NONE',  ( 1.000000000000000000, 0.0000000000000000000, -3.252606517456511724E-15 ) ) ;
#29 = CARTESIAN_POINT ( 'NONE',  ( 2.094888803305879224E-15, 0.0000000000000000000, 0.5999999999999998668 ) ) ;
#30 = CARTESIAN_POINT ( 'NONE',  ( 0.2000000000000021760, 0.0000000000000000000, 0.5999999999999989786 ) ) ;
#31 = FACE_OUTER_BOUND ( 'NONE', #174, .T. ) ;
#32 = DIRECTION ( 'NONE',  ( 1.000000000000000000, 0.0000000000000000000, -3.491481338843133355E-15 ) ) ;
#33 = COORDINATED_UNIVERSAL_TIME_OFFSET ( 1, 0, .AHEAD. ) ;
#34 = CARTESIAN_POINT ( 'NONE',  ( 1.600000000000132871, 0.0000000000000000000, 37.99999999999999289 ) ) ;
#35 = DIRECTION ( 'NONE',  ( -3.491481338843133355E-15, 0.0000000000000000000, -1.000000000000000000 ) ) ;
#36 = DIRECTION ( 'NONE',  ( 3.491481338843133355E-15, -0.0000000000000000000, 1.000000000000000000 ) ) ;
#37 = CC_DESIGN_PERSON_AND_ORGANIZATION_ASSIGNMENT ( #24, #90, ( #17 ) ) ;
#38 = FACE_OUTER_BOUND ( 'NONE', #98, .T. ) ;
#39 = FACE_BOUND ( 'NONE', #85, .T. ) ;
#40 = APPLICATION_PROTOCOL_DEFINITION ( 'international standard', 'config_control_design', 1994, #13 ) ;
#41 = PERSON_AND_ORGANIZATION_ROLE ( 'classification_officer' ) ;
#42 = APPROVAL_DATE_TIME ( #115, #2 ) ;
#43 = COORDINATED_UNIVERSAL_TIME_OFFSET ( 1, 0, .AHEAD. ) ;
#44 = DIRECTION ( 'NONE',  ( 1.000000000000000000, 0.0000000000000000000, -3.491481338843133355E-15 ) ) ;
#45 = DIRECTION ( 'NONE',  ( -1.000000000000000000, 0.0000000000000000000, 3.491481338843133355E-15 ) ) ;
#46 = LOCAL_TIME ( 7, 47, 5.000000000000000000, #33 ) ;
#47 = DIRECTION ( 'NONE',  ( 1.000000000000000000, 0.0000000000000000000, -4.336808689942017736E-15 ) ) ;
#48 = PLANE ( 'NONE',  #124 ) ;
#49 = CC_DESIGN_DATE_AND_TIME_ASSIGNMENT ( #197, #177, ( #120 ) ) ;
#50 = VERTEX_POINT ( 'NONE', #147 ) ;
#51 = CIRCLE ( 'NONE', #243, 0.2000000000000000944 ) ;
#52 = DIRECTION ( 'NONE',  ( 3.491481338843133355E-15, -0.0000000000000000000, 1.000000000000000000 ) ) ;
#53 = APPROVAL_DATE_TIME ( #209, #204 ) ;
#54 = CALENDAR_DATE ( 2021, 9, 11 ) ;
#55 = CARTESIAN_POINT ( 'NONE',  ( 0.0000000000000000000, 0.0000000000000000000, 0.0000000000000000000 ) ) ;
#56 = PERSON_AND_ORGANIZATION ( #228, #142 ) ;
#57 = DIRECTION ( 'NONE',  ( 3.491481338843133355E-15, -0.0000000000000000000, 1.000000000000000000 ) ) ;
#58 = PERSON_AND_ORGANIZATION_ROLE ( 'creator' ) ;
#59 = ADVANCED_FACE ( 'NONE', ( #148, #38 ), #212, .F. ) ;
#60 = CARTESIAN_POINT ( 'NONE',  ( 1.326762908760390423E-13, 0.0000000000000000000, 38.00000000000000000 ) ) ;
#61 = EDGE_LOOP ( 'NONE', ( #110 ) ) ;
#62 = LOCAL_TIME ( 7, 47, 5.000000000000000000, #215 ) ;
#63 = VERTEX_POINT ( 'NONE', #223 ) ;
#64 = PLANE ( 'NONE',  #186 ) ;
#65 = SECURITY_CLASSIFICATION ( '', '', #172 ) ;
#66 = CARTESIAN_POINT ( 'NONE',  ( -4.915890506466203054E-37, 0.0000000000000000000, -1.407967000074253141E-22 ) ) ;
#67 = AXIS2_PLACEMENT_3D ( 'NONE', #79, #136, #32 ) ;
#68 = MANIFOLD_SOLID_BREP ( 'Corps-Déplacer/Copier1[1]', #190 ) ;
#69 = DIRECTION ( 'NONE',  ( 3.491481338843133355E-15, -0.0000000000000000000, 1.000000000000000000 ) ) ;
#70 = CONICAL_SURFACE ( 'NONE', #221, 1.600000000000000089, 0.7853981633974512766 ) ;
#71 = CIRCLE ( 'NONE', #19, 2.000000000000000000 ) ;
#72 =( NAMED_UNIT ( * ) PLANE_ANGLE_UNIT ( ) SI_UNIT ( $, .RADIAN. ) );
#73 = MANIFOLD_SOLID_BREP ( 'Corps-Déplacer/Copier1[2]', #121 ) ;
#74 = FACE_OUTER_BOUND ( 'NONE', #116, .T. ) ;
#75 = DIRECTION ( 'NONE',  ( 3.491481338843133355E-15, -0.0000000000000000000, 1.000000000000000000 ) ) ;
#76 = ORIENTED_EDGE ( 'NONE', *, *, #226, .T. ) ;
#77 = APPROVAL_STATUS ( 'not_yet_approved' ) ;
#78 = DIRECTION ( 'NONE',  ( 3.491481338843133355E-15, -0.0000000000000000000, 1.000000000000000000 ) ) ;
#79 = CARTESIAN_POINT ( 'NONE',  ( 0.0000000000000000000, 0.0000000000000000000, 0.0000000000000000000 ) ) ;
#80 = CC_DESIGN_PERSON_AND_ORGANIZATION_ASSIGNMENT ( #191, #156, ( #202 ) ) ;
#81 = DIRECTION ( 'NONE',  ( 3.491481338843133355E-15, -0.0000000000000000000, 1.000000000000000000 ) ) ;
#82 = EDGE_LOOP ( 'NONE', ( #92 ) ) ;
#83 = ORIENTED_EDGE ( 'NONE', *, *, #217, .F. ) ;
#84 = ADVANCED_BREP_SHAPE_REPRESENTATION ( '334856', ( #68, #73, #162 ), #3 ) ;
#85 = EDGE_LOOP ( 'NONE', ( #219 ) ) ;
#86 = APPROVAL_STATUS ( 'not_yet_approved' ) ;
#87 = EDGE_CURVE ( 'NONE', #103, #103, #154, .T. ) ;
#88 = CIRCLE ( 'NONE', #119, 2.000000000000000000 ) ;
#89 = DIRECTION ( 'NONE',  ( 3.491481338843133355E-15, -0.0000000000000000000, 1.000000000000000000 ) ) ;
#90 = PERSON_AND_ORGANIZATION_ROLE ( 'creator' ) ;
#91 = CC_DESIGN_APPROVAL ( #2, ( #120 ) ) ;
#92 = ORIENTED_EDGE ( 'NONE', *, *, #144, .F. ) ;
#93 = CARTESIAN_POINT ( 'NONE',  ( 3.902212535531135605E-15, 0.0000000000000000000, 1.117638090205028467 ) ) ;
#94 = VERTEX_POINT ( 'NONE', #27 ) ;
#95 = FACE_OUTER_BOUND ( 'NONE', #239, .T. ) ;
#96 = APPROVAL_PERSON_ORGANIZATION ( #222, #196, #203 ) ;
#97 = APPROVAL_DATE_TIME ( #11, #196 ) ;
#98 = EDGE_LOOP ( 'NONE', ( #179 ) ) ;
#99 = ORIENTED_EDGE ( 'NONE', *, *, #87, .T. ) ;
#100 = AXIS2_PLACEMENT_3D ( 'NONE', #200, #81, #47 ) ;
#101 = CC_DESIGN_APPROVAL ( #196, ( #65 ) ) ;
#102 = AXIS2_PLACEMENT_3D ( 'NONE', #198, #155, #114 ) ;
#103 = VERTEX_POINT ( 'NONE', #34 ) ;
#104 = FACE_OUTER_BOUND ( 'NONE', #22, .T. ) ;
#105 = DIRECTION ( 'NONE',  ( -1.000000000000000000, 0.0000000000000000000, 4.336808689942017736E-15 ) ) ;
#106 = CIRCLE ( 'NONE', #8, 0.2000000000000000944 ) ;
#107 = FACE_OUTER_BOUND ( 'NONE', #143, .T. ) ;
#108 = APPROVAL_ROLE ( '' ) ;
#109 = COORDINATED_UNIVERSAL_TIME_OFFSET ( 1, 0, .AHEAD. ) ;
#110 = ORIENTED_EDGE ( 'NONE', *, *, #165, .F. ) ;
#111 = CALENDAR_DATE ( 2021, 9, 11 ) ;
#112 = EDGE_LOOP ( 'NONE', ( #181 ) ) ;
#113 = VERTEX_POINT ( 'NONE', #30 ) ;
#114 = DIRECTION ( 'NONE',  ( 1.000000000000000000, 0.0000000000000000000, -3.491481338843133355E-15 ) ) ;
#115 = DATE_AND_TIME ( #218, #62 ) ;
#116 = EDGE_LOOP ( 'NONE', ( #14 ) ) ;
#117 = CARTESIAN_POINT ( 'NONE',  ( 2.094888803305878435E-15, 0.0000000000000000000, 0.5999999999999996447 ) ) ;
#118 = SHAPE_DEFINITION_REPRESENTATION ( #146, #84 ) ;
#119 = AXIS2_PLACEMENT_3D ( 'NONE', #168, #69, #207 ) ;
#120 = PRODUCT_DEFINITION ( 'UNKNOWN', '', #17, #25 ) ;
#121 = CLOSED_SHELL ( 'NONE', ( #164, #15, #130 ) ) ;
#122 = CARTESIAN_POINT ( 'NONE',  ( 2.000000000000026645, 0.0000000000000000000, 7.580996448798934750 ) ) ;
#123 = EDGE_CURVE ( 'NONE', #63, #63, #214, .T. ) ;
#124 = AXIS2_PLACEMENT_3D ( 'NONE', #205, #35, #16 ) ;
#125 = DIRECTION ( 'NONE',  ( -3.491481338843133355E-15, 0.0000000000000000000, -1.000000000000000000 ) ) ;
#126 = DIRECTION ( 'NONE',  ( 1.000000000000000000, 0.0000000000000000000, -3.469446951953614189E-15 ) ) ;
#127 = CONICAL_SURFACE ( 'NONE', #208, 2.000000000000000000, 0.2617993877991428020 ) ;
#128 = FACE_BOUND ( 'NONE', #171, .T. ) ;
#129 = AXIS2_PLACEMENT_3D ( 'NONE', #93, #12, #135 ) ;
#130 = ADVANCED_FACE ( 'NONE', ( #31 ), #157, .F. ) ;
#131 = DIRECTION ( 'NONE',  ( 1.000000000000000000, 0.0000000000000000000, -3.491481338843133355E-15 ) ) ;
#132 = MECHANICAL_CONTEXT ( 'NONE', #229, 'mechanical' ) ;
#133 = DATE_AND_TIME ( #54, #145 ) ;
#134 = DIRECTION ( 'NONE',  ( 3.491481338843133355E-15, -0.0000000000000000000, 1.000000000000000000 ) ) ;
#135 = DIRECTION ( 'NONE',  ( 1.000000000000000000, 0.0000000000000000000, -3.234633911891467127E-15 ) ) ;
#136 = DIRECTION ( 'NONE',  ( 3.491481338843133355E-15, -0.0000000000000000000, 1.000000000000000000 ) ) ;
#137 = APPLICATION_PROTOCOL_DEFINITION ( 'international standard', 'config_control_design', 1994, #229 ) ;
#138 = FACE_OUTER_BOUND ( 'NONE', #112, .T. ) ;
#139 = DIRECTION ( 'NONE',  ( -3.491481338843133355E-15, 0.0000000000000000000, -1.000000000000000000 ) ) ;
#140 = EDGE_LOOP ( 'NONE', ( #5 ) ) ;
#141 = ORIENTED_EDGE ( 'NONE', *, *, #217, .T. ) ;
#142 = ORGANIZATION ( 'UNSPECIFIED', 'UNSPECIFIED', '' ) ;
#143 = EDGE_LOOP ( 'NONE', ( #76 ) ) ;
#144 = EDGE_CURVE ( 'NONE', #163, #163, #71, .T. ) ;
#145 = LOCAL_TIME ( 7, 47, 5.000000000000000000, #109 ) ;
#146 = PRODUCT_DEFINITION_SHAPE ( 'NONE', 'NONE',  #120 ) ;
#147 = CARTESIAN_POINT ( 'NONE',  ( 0.2000000000000021760, 0.0000000000000000000, 0.5999999999999989786 ) ) ;
#148 = FACE_OUTER_BOUND ( 'NONE', #159, .T. ) ;
#149 = PRODUCT_RELATED_PRODUCT_CATEGORY ( 'detail', '', ( #202 ) ) ;
#150 = LOCAL_TIME ( 7, 47, 5.000000000000000000, #10 ) ;
#151 = PERSON_AND_ORGANIZATION ( #228, #142 ) ;
#152 = APPROVAL_ROLE ( '' ) ;
#153 = FACE_OUTER_BOUND ( 'NONE', #167, .T. ) ;
#154 = CIRCLE ( 'NONE', #100, 1.600000000000000089 ) ;
#155 = DIRECTION ( 'NONE',  ( 3.491481338843133355E-15, -0.0000000000000000000, 1.000000000000000000 ) ) ;
#156 = PERSON_AND_ORGANIZATION_ROLE ( 'design_owner' ) ;
#157 = PLANE ( 'NONE',  #18 ) ;
#158 = PLANE ( 'NONE',  #184 ) ;
#159 = EDGE_LOOP ( 'NONE', ( #161 ) ) ;
#160 = CC_DESIGN_DATE_AND_TIME_ASSIGNMENT ( #133, #213, ( #65 ) ) ;
#161 = ORIENTED_EDGE ( 'NONE', *, *, #165, .T. ) ;
#162 = AXIS2_PLACEMENT_3D ( 'NONE', #227, #232, #195 ) ;
#163 = VERTEX_POINT ( 'NONE', #122 ) ;
#164 = ADVANCED_FACE ( 'NONE', ( #104 ), #64, .T. ) ;
#165 = EDGE_CURVE ( 'NONE', #50, #50, #106, .T. ) ;
#166 = FACE_OUTER_BOUND ( 'NONE', #82, .T. ) ;
#167 = EDGE_LOOP ( 'NONE', ( #141 ) ) ;
#168 = CARTESIAN_POINT ( 'NONE',  ( 1.312796983405018142E-13, 0.0000000000000000000, 37.60000000000000142 ) ) ;
#169 = PERSON_AND_ORGANIZATION_ROLE ( 'design_supplier' ) ;
#170 = APPROVAL_PERSON_ORGANIZATION ( #56, #2, #152 ) ;
#171 = EDGE_LOOP ( 'NONE', ( #183 ) ) ;
#172 = SECURITY_CLASSIFICATION_LEVEL ( 'unclassified' ) ;
#173 = CYLINDRICAL_SURFACE ( 'NONE', #225, 2.000000000000000000 ) ;
#174 = EDGE_LOOP ( 'NONE', ( #201 ) ) ;
#175 =( LENGTH_UNIT ( ) NAMED_UNIT ( * ) SI_UNIT ( .MILLI., .METRE. ) );
#176 = APPROVAL_PERSON_ORGANIZATION ( #4, #204, #108 ) ;
#177 = DATE_TIME_ROLE ( 'creation_date' ) ;
#178 = ADVANCED_FACE ( 'NONE', ( #231, #138 ), #173, .T. ) ;
#179 = ORIENTED_EDGE ( 'NONE', *, *, #123, .F. ) ;
#180 = DIRECTION ( 'NONE',  ( -1.000000000000000000, 0.0000000000000000000, 3.491481338843133355E-15 ) ) ;
#181 = ORIENTED_EDGE ( 'NONE', *, *, #144, .T. ) ;
#182 = CARTESIAN_POINT ( 'NONE',  ( 2.094888803305878435E-15, 0.0000000000000000000, 0.5999999999999996447 ) ) ;
#183 = ORIENTED_EDGE ( 'NONE', *, *, #87, .F. ) ;
#184 = AXIS2_PLACEMENT_3D ( 'NONE', #60, #52, #131 ) ;
#185 = FACE_OUTER_BOUND ( 'NONE', #61, .T. ) ;
#186 = AXIS2_PLACEMENT_3D ( 'NONE', #66, #220, #180 ) ;
#187 = CC_DESIGN_PERSON_AND_ORGANIZATION_ASSIGNMENT ( #235, #58, ( #120 ) ) ;
#188 = CC_DESIGN_PERSON_AND_ORGANIZATION_ASSIGNMENT ( #230, #169, ( #17 ) ) ;
#189 = VERTEX_POINT ( 'NONE', #194 ) ;
#190 = CLOSED_SHELL ( 'NONE', ( #178, #233, #21, #59, #224, #238 ) ) ;
#191 = PERSON_AND_ORGANIZATION ( #228, #142 ) ;
#192 = UNCERTAINTY_MEASURE_WITH_UNIT (LENGTH_MEASURE( 1.000000000000000082E-05 ), #175, 'distance_accuracy_value', 'NONE');
#193 = CC_DESIGN_APPROVAL ( #204, ( #17 ) ) ;
#194 = CARTESIAN_POINT ( 'NONE',  ( 0.2000000000000000944, 0.0000000000000000000, -6.982965493620270416E-16 ) ) ;
#195 = DIRECTION ( 'NONE',  ( 1.000000000000000000, 0.0000000000000000000, 0.0000000000000000000 ) ) ;
#196 = APPROVAL ( #86, 'UNSPECIFIED' ) ;
#197 = DATE_AND_TIME ( #210, #237 ) ;
#198 = CARTESIAN_POINT ( 'NONE',  ( -9.831781012932406109E-37, 0.0000000000000000000, -2.815934000148506281E-22 ) ) ;
#199 = CARTESIAN_POINT ( 'NONE',  ( 2.646890763081756838E-14, 0.0000000000000000000, 7.580996448798941856 ) ) ;
#200 = CARTESIAN_POINT ( 'NONE',  ( 1.326762908760390423E-13, 0.0000000000000000000, 38.00000000000000000 ) ) ;
#201 = ORIENTED_EDGE ( 'NONE', *, *, #211, .T. ) ;
#202 = PRODUCT ( '334856', '334856', '', ( #132 ) ) ;
#203 = APPROVAL_ROLE ( '' ) ;
#204 = APPROVAL ( #26, 'UNSPECIFIED' ) ;
#205 = CARTESIAN_POINT ( 'NONE',  ( 2.094888803305879224E-15, -6.505213034913024139E-17, 0.5999999999999998668 ) ) ;
#206 = CIRCLE ( 'NONE', #102, 0.2000000000000000944 ) ;
#207 = DIRECTION ( 'NONE',  ( 1.000000000000000000, 0.0000000000000000000, -3.469446951953614189E-15 ) ) ;
#208 = AXIS2_PLACEMENT_3D ( 'NONE', #23, #89, #126 ) ;
#209 = DATE_AND_TIME ( #111, #150 ) ;
#210 = CALENDAR_DATE ( 2021, 9, 11 ) ;
#211 = EDGE_CURVE ( 'NONE', #113, #113, #51, .T. ) ;
#212 = TOROIDAL_SURFACE ( 'NONE', #20, 2.200000000000000178, 2.000000000000000000 ) ;
#213 = DATE_TIME_ROLE ( 'classification_date' ) ;
#214 = CIRCLE ( 'NONE', #129, 0.2681483474218601115 ) ;
#215 = COORDINATED_UNIVERSAL_TIME_OFFSET ( 1, 0, .AHEAD. ) ;
#216 = DIRECTION ( 'NONE',  ( 1.000000000000000000, 0.0000000000000000000, -3.252606517456511724E-15 ) ) ;
#217 = EDGE_CURVE ( 'NONE', #189, #189, #206, .T. ) ;
#218 = CALENDAR_DATE ( 2021, 9, 11 ) ;
#219 = ORIENTED_EDGE ( 'NONE', *, *, #123, .T. ) ;
#220 = DIRECTION ( 'NONE',  ( -3.491481338843133355E-15, 0.0000000000000000000, -1.000000000000000000 ) ) ;
#221 = AXIS2_PLACEMENT_3D ( 'NONE', #1, #125, #105 ) ;
#222 = PERSON_AND_ORGANIZATION ( #228, #142 ) ;
#223 = CARTESIAN_POINT ( 'NONE',  ( 0.2681483474218639973, 0.0000000000000000000, 1.117638090205027801 ) ) ;
#224 = ADVANCED_FACE ( 'NONE', ( #39, #166 ), #127, .T. ) ;
#225 = AXIS2_PLACEMENT_3D ( 'NONE', #55, #134, #44 ) ;
#226 = EDGE_CURVE ( 'NONE', #94, #94, #88, .T. ) ;
#227 = CARTESIAN_POINT ( 'NONE',  ( 0.0000000000000000000, 0.0000000000000000000, 0.0000000000000000000 ) ) ;
#228 = PERSON ( 'UNSPECIFIED', 'UNSPECIFIED', 'UNSPECIFIED', ('UNSPECIFIED'), ('UNSPECIFIED'), ('UNSPECIFIED') ) ;
#229 = APPLICATION_CONTEXT ( 'configuration controlled 3d designs of mechanical parts and assemblies' ) ;
#230 = PERSON_AND_ORGANIZATION ( #228, #142 ) ;
#231 = FACE_OUTER_BOUND ( 'NONE', #140, .T. ) ;
#232 = DIRECTION ( 'NONE',  ( 0.0000000000000000000, 0.0000000000000000000, 1.000000000000000000 ) ) ;
#233 = ADVANCED_FACE ( 'NONE', ( #107, #128 ), #70, .T. ) ;
#234 = CC_DESIGN_SECURITY_CLASSIFICATION ( #65, ( #17 ) ) ;
#235 = PERSON_AND_ORGANIZATION ( #228, #142 ) ;
#236 = CARTESIAN_POINT ( 'NONE',  ( 2.094888803305879224E-15, -6.505213034913024139E-17, 0.5999999999999998668 ) ) ;
#237 = LOCAL_TIME ( 7, 47, 5.000000000000000000, #43 ) ;
#238 = ADVANCED_FACE ( 'NONE', ( #185 ), #48, .T. ) ;
#239 = EDGE_LOOP ( 'NONE', ( #99 ) ) ;
#240 = CALENDAR_DATE ( 2021, 9, 11 ) ;
#241 = CC_DESIGN_PERSON_AND_ORGANIZATION_ASSIGNMENT ( #151, #41, ( #65 ) ) ;
#242 = DIRECTION ( 'NONE',  ( 1.000000000000000000, 0.0000000000000000000, -3.469446951953614189E-15 ) ) ;
#243 = AXIS2_PLACEMENT_3D ( 'NONE', #117, #78, #216 ) ;
ENDSEC;
END-ISO-10303-21;
