ISO-10303-21;
HEADER;
FILE_DESCRIPTION (( 'STEP AP203' ),
    '1' );
FILE_NAME ('334855.step',
    '2021-11-09T06:47:04',
    ( '' ),
    ( '' ),
    'SwSTEP 2.0',
    'SolidWorks 2019',
    '' );
FILE_SCHEMA (( 'CONFIG_CONTROL_DESIGN' ));
ENDSEC;

DATA;
#1 = AXIS2_PLACEMENT_3D ( 'NONE', #88, #67, #184 ) ;
#2 = AXIS2_PLACEMENT_3D ( 'NONE', #216, #188, #82 ) ;
#3 = CARTESIAN_POINT ( 'NONE',  ( -9.831781012932406109E-37, 0.0000000000000000000, -2.815934000148506281E-22 ) ) ;
#4 = ADVANCED_FACE ( 'NONE', ( #150 ), #70, .F. ) ;
#5 = APPROVAL_PERSON_ORGANIZATION ( #144, #243, #125 ) ;
#6 = DIRECTION ( 'NONE',  ( 1.000000000000000000, 0.0000000000000000000, -3.567212145117077456E-15 ) ) ;
#7 = SECURITY_CLASSIFICATION_LEVEL ( 'unclassified' ) ;
#8 = DATE_AND_TIME ( #107, #37 ) ;
#9 = MECHANICAL_CONTEXT ( 'NONE', #117, 'mechanical' ) ;
#10 = UNCERTAINTY_MEASURE_WITH_UNIT (LENGTH_MEASURE( 1.000000000000000082E-05 ), #71, 'distance_accuracy_value', 'NONE');
#11 = EDGE_LOOP ( 'NONE', ( #200 ) ) ;
#12 = DIRECTION ( 'NONE',  ( 0.0000000000000000000, 0.0000000000000000000, 1.000000000000000000 ) ) ;
#13 = CIRCLE ( 'NONE', #191, 1.600000000000000089 ) ;
#14 = TOROIDAL_SURFACE ( 'NONE', #55, 2.174999999999999378, 2.000000000000000000 ) ;
#15 = EDGE_LOOP ( 'NONE', ( #205 ) ) ;
#16 = EDGE_LOOP ( 'NONE', ( #192 ) ) ;
#17 = ORIENTED_EDGE ( 'NONE', *, *, #175, .F. ) ;
#18 = ADVANCED_FACE ( 'NONE', ( #224, #50 ), #174, .T. ) ;
#19 = VERTEX_POINT ( 'NONE', #53 ) ;
#20 = AXIS2_PLACEMENT_3D ( 'NONE', #42, #58, #156 ) ;
#21 = ADVANCED_BREP_SHAPE_REPRESENTATION ( '334855', ( #158, #234, #198 ), #102 ) ;
#22 = APPROVAL ( #171, 'UNSPECIFIED' ) ;
#23 = DIRECTION ( 'NONE',  ( 3.491481338843133355E-15, -0.0000000000000000000, 1.000000000000000000 ) ) ;
#24 = CARTESIAN_POINT ( 'NONE',  ( 0.0000000000000000000, 0.0000000000000000000, 0.0000000000000000000 ) ) ;
#25 = COORDINATED_UNIVERSAL_TIME_OFFSET ( 1, 0, .AHEAD. ) ;
#26 = PERSON_AND_ORGANIZATION_ROLE ( 'classification_officer' ) ;
#27 = FACE_OUTER_BOUND ( 'NONE', #241, .T. ) ;
#28 = CALENDAR_DATE ( 2021, 9, 11 ) ;
#29 = PLANE ( 'NONE',  #79 ) ;
#30 = ORIENTED_EDGE ( 'NONE', *, *, #199, .F. ) ;
#31 = CARTESIAN_POINT ( 'NONE',  ( 0.1750000000000016542, 0.0000000000000000000, 0.5299999999999990274 ) ) ;
#32 = PERSON_AND_ORGANIZATION_ROLE ( 'creator' ) ;
#33 = CARTESIAN_POINT ( 'NONE',  ( 0.1750000000000016542, 0.0000000000000000000, 0.5299999999999990274 ) ) ;
#34 = ORIENTED_EDGE ( 'NONE', *, *, #233, .F. ) ;
#35 = EDGE_LOOP ( 'NONE', ( #30 ) ) ;
#36 = AXIS2_PLACEMENT_3D ( 'NONE', #172, #72, #148 ) ;
#37 = LOCAL_TIME ( 7, 47, 4.000000000000000000, #186 ) ;
#38 = CARTESIAN_POINT ( 'NONE',  ( 0.2431483474218630592, 0.0000000000000000000, 1.047638090205027517 ) ) ;
#39 = ADVANCED_FACE ( 'NONE', ( #237 ), #29, .T. ) ;
#40 = DIRECTION ( 'NONE',  ( 1.000000000000000000, 0.0000000000000000000, -3.717264591378875951E-15 ) ) ;
#41 = DIRECTION ( 'NONE',  ( 1.000000000000000000, 0.0000000000000000000, -3.491481338843132961E-15 ) ) ;
#42 = CARTESIAN_POINT ( 'NONE',  ( 1.312796983405018142E-13, 0.0000000000000000000, 37.60000000000000142 ) ) ;
#43 = CIRCLE ( 'NONE', #227, 0.1749999999999998224 ) ;
#44 = CALENDAR_DATE ( 2021, 9, 11 ) ;
#45 = EDGE_LOOP ( 'NONE', ( #17 ) ) ;
#46 = DIRECTION ( 'NONE',  ( -1.000000000000000000, 0.0000000000000000000, 3.491481338843133355E-15 ) ) ;
#47 = PERSON_AND_ORGANIZATION_ROLE ( 'creator' ) ;
#48 = CALENDAR_DATE ( 2021, 9, 11 ) ;
#49 = ORIENTED_EDGE ( 'NONE', *, *, #231, .F. ) ;
#50 = FACE_OUTER_BOUND ( 'NONE', #97, .T. ) ;
#51 = AXIS2_PLACEMENT_3D ( 'NONE', #211, #23, #118 ) ;
#52 = PRODUCT_DEFINITION_SHAPE ( 'NONE', 'NONE',  #225 ) ;
#53 = CARTESIAN_POINT ( 'NONE',  ( 1.600000000000132871, 0.0000000000000000000, 37.99999999999999289 ) ) ;
#54 = EDGE_CURVE ( 'NONE', #19, #19, #13, .T. ) ;
#55 = AXIS2_PLACEMENT_3D ( 'NONE', #134, #116, #195 ) ;
#56 = PERSON ( 'UNSPECIFIED', 'UNSPECIFIED', 'UNSPECIFIED', ('UNSPECIFIED'), ('UNSPECIFIED'), ('UNSPECIFIED') ) ;
#57 = VERTEX_POINT ( 'NONE', #31 ) ;
#58 = DIRECTION ( 'NONE',  ( 3.491481338843133355E-15, -0.0000000000000000000, 1.000000000000000000 ) ) ;
#59 = DESIGN_CONTEXT ( 'detailed design', #168, 'design' ) ;
#60 = LOCAL_TIME ( 7, 47, 4.000000000000000000, #221 ) ;
#61 = CARTESIAN_POINT ( 'NONE',  ( -4.915890506466203054E-37, 0.0000000000000000000, -1.407967000074253141E-22 ) ) ;
#62 = DATE_AND_TIME ( #28, #68 ) ;
#63 = PERSON_AND_ORGANIZATION ( #56, #114 ) ;
#64 = ORIENTED_EDGE ( 'NONE', *, *, #54, .F. ) ;
#65 = ADVANCED_FACE ( 'NONE', ( #141 ), #181, .T. ) ;
#66 = APPROVAL_DATE_TIME ( #62, #22 ) ;
#67 = DIRECTION ( 'NONE',  ( -3.491481338843133355E-15, 0.0000000000000000000, -1.000000000000000000 ) ) ;
#68 = LOCAL_TIME ( 7, 47, 4.000000000000000000, #218 ) ;
#69 = APPROVAL_STATUS ( 'not_yet_approved' ) ;
#70 = PLANE ( 'NONE',  #36 ) ;
#71 =( LENGTH_UNIT ( ) NAMED_UNIT ( * ) SI_UNIT ( .MILLI., .METRE. ) );
#72 = DIRECTION ( 'NONE',  ( -3.491481338843133355E-15, 0.0000000000000000000, -1.000000000000000000 ) ) ;
#73 = DATE_AND_TIME ( #48, #60 ) ;
#74 = VERTEX_POINT ( 'NONE', #223 ) ;
#75 = CIRCLE ( 'NONE', #20, 2.000000000000000000 ) ;
#76 = DIRECTION ( 'NONE',  ( 3.491481338843133355E-15, -0.0000000000000000000, 1.000000000000000000 ) ) ;
#77 = AXIS2_PLACEMENT_3D ( 'NONE', #81, #123, #145 ) ;
#78 = PRODUCT_DEFINITION_FORMATION_WITH_SPECIFIED_SOURCE ( 'ANY', '', #99, .NOT_KNOWN. ) ;
#79 = AXIS2_PLACEMENT_3D ( 'NONE', #157, #229, #194 ) ;
#80 = CARTESIAN_POINT ( 'NONE',  ( 0.1749999999999998224, 0.0000000000000000000, -6.110095158909477216E-16 ) ) ;
#81 = CARTESIAN_POINT ( 'NONE',  ( 1.326762908760390423E-13, 0.0000000000000000000, 38.00000000000000000 ) ) ;
#82 = DIRECTION ( 'NONE',  ( 1.000000000000000000, 0.0000000000000000000, -3.469446951953614189E-15 ) ) ;
#83 = CARTESIAN_POINT ( 'NONE',  ( 1.850485109586859258E-15, 0.0000000000000000000, 0.5299999999999996936 ) ) ;
#84 = FACE_OUTER_BOUND ( 'NONE', #35, .T. ) ;
#85 = FACE_BOUND ( 'NONE', #142, .T. ) ;
#86 = CC_DESIGN_DATE_AND_TIME_ASSIGNMENT ( #111, #95, ( #225 ) ) ;
#87 = DATE_TIME_ROLE ( 'classification_date' ) ;
#88 = CARTESIAN_POINT ( 'NONE',  ( 1.326762908760390423E-13, 0.0000000000000000000, 38.00000000000000000 ) ) ;
#89 = DIRECTION ( 'NONE',  ( 1.000000000000000000, 0.0000000000000000000, -3.491481338843133355E-15 ) ) ;
#90 = APPLICATION_PROTOCOL_DEFINITION ( 'international standard', 'config_control_design', 1994, #168 ) ;
#91 = ORIENTED_EDGE ( 'NONE', *, *, #199, .T. ) ;
#92 = CC_DESIGN_APPROVAL ( #243, ( #225 ) ) ;
#93 = DIRECTION ( 'NONE',  ( 1.000000000000000000, 0.0000000000000000000, 0.0000000000000000000 ) ) ;
#94 = EDGE_LOOP ( 'NONE', ( #133 ) ) ;
#95 = DATE_TIME_ROLE ( 'creation_date' ) ;
#96 = PRODUCT_RELATED_PRODUCT_CATEGORY ( 'detail', '', ( #99 ) ) ;
#97 = EDGE_LOOP ( 'NONE', ( #91 ) ) ;
#98 = CC_DESIGN_PERSON_AND_ORGANIZATION_ASSIGNMENT ( #63, #26, ( #177 ) ) ;
#99 = PRODUCT ( '334855', '334855', '', ( #9 ) ) ;
#100 = AXIS2_PLACEMENT_3D ( 'NONE', #83, #160, #40 ) ;
#101 = FACE_OUTER_BOUND ( 'NONE', #16, .T. ) ;
#102 =( GEOMETRIC_REPRESENTATION_CONTEXT ( 3 ) GLOBAL_UNCERTAINTY_ASSIGNED_CONTEXT ( ( #10 ) ) GLOBAL_UNIT_ASSIGNED_CONTEXT ( ( #71, #127, #109 ) ) REPRESENTATION_CONTEXT ( 'NONE', 'WORKASPACE' ) );
#103 = EDGE_LOOP ( 'NONE', ( #34 ) ) ;
#104 = DIRECTION ( 'NONE',  ( 3.491481338843133355E-15, -0.0000000000000000000, 1.000000000000000000 ) ) ;
#105 = PERSON_AND_ORGANIZATION ( #56, #114 ) ;
#106 = CLOSED_SHELL ( 'NONE', ( #18, #151, #65, #240, #208, #39 ) ) ;
#107 = CALENDAR_DATE ( 2021, 9, 11 ) ;
#108 = ORIENTED_EDGE ( 'NONE', *, *, #159, .T. ) ;
#109 =( NAMED_UNIT ( * ) SI_UNIT ( $, .STERADIAN. ) SOLID_ANGLE_UNIT ( ) );
#110 = EDGE_LOOP ( 'NONE', ( #222 ) ) ;
#111 = DATE_AND_TIME ( #236, #120 ) ;
#112 = ORIENTED_EDGE ( 'NONE', *, *, #54, .T. ) ;
#113 = APPROVAL_DATE_TIME ( #73, #196 ) ;
#114 = ORGANIZATION ( 'UNSPECIFIED', 'UNSPECIFIED', '' ) ;
#115 = VERTEX_POINT ( 'NONE', #33 ) ;
#116 = DIRECTION ( 'NONE',  ( 3.491481338843133355E-15, -0.0000000000000000000, 1.000000000000000000 ) ) ;
#117 = APPLICATION_CONTEXT ( 'configuration controlled 3d designs of mechanical parts and assemblies' ) ;
#118 = DIRECTION ( 'NONE',  ( 1.000000000000000000, 0.0000000000000000000, -3.717264591378875951E-15 ) ) ;
#119 = CLOSED_SHELL ( 'NONE', ( #212, #217, #4 ) ) ;
#120 = LOCAL_TIME ( 7, 47, 4.000000000000000000, #25 ) ;
#121 = CARTESIAN_POINT ( 'NONE',  ( 3.657808841812115639E-15, 0.0000000000000000000, 1.047638090205028405 ) ) ;
#122 = APPROVAL_DATE_TIME ( #167, #243 ) ;
#123 = DIRECTION ( 'NONE',  ( 3.491481338843133355E-15, -0.0000000000000000000, 1.000000000000000000 ) ) ;
#124 = FACE_OUTER_BOUND ( 'NONE', #129, .T. ) ;
#125 = APPROVAL_ROLE ( '' ) ;
#126 = FACE_OUTER_BOUND ( 'NONE', #11, .T. ) ;
#127 =( NAMED_UNIT ( * ) PLANE_ANGLE_UNIT ( ) SI_UNIT ( $, .RADIAN. ) );
#128 = CC_DESIGN_PERSON_AND_ORGANIZATION_ASSIGNMENT ( #163, #149, ( #99 ) ) ;
#129 = EDGE_LOOP ( 'NONE', ( #49 ) ) ;
#130 = CIRCLE ( 'NONE', #161, 2.000000000000000000 ) ;
#131 = CIRCLE ( 'NONE', #51, 0.1749999999999998224 ) ;
#132 = VERTEX_POINT ( 'NONE', #173 ) ;
#133 = ORIENTED_EDGE ( 'NONE', *, *, #197, .F. ) ;
#134 = CARTESIAN_POINT ( 'NONE',  ( 1.850485109586860047E-15, 0.0000000000000000000, 0.5299999999999999156 ) ) ;
#135 = DIRECTION ( 'NONE',  ( 1.000000000000000000, 0.0000000000000000000, -3.491481338843132961E-15 ) ) ;
#136 = CC_DESIGN_PERSON_AND_ORGANIZATION_ASSIGNMENT ( #105, #183, ( #78 ) ) ;
#137 = CARTESIAN_POINT ( 'NONE',  ( 2.655026358085459608E-14, 0.0000000000000000000, 7.604297718988168420 ) ) ;
#138 = CIRCLE ( 'NONE', #176, 0.2431483474218593954 ) ;
#139 = CC_DESIGN_APPROVAL ( #196, ( #177 ) ) ;
#140 = CYLINDRICAL_SURFACE ( 'NONE', #154, 0.1749999999999998224 ) ;
#141 = FACE_OUTER_BOUND ( 'NONE', #203, .T. ) ;
#142 = EDGE_LOOP ( 'NONE', ( #64 ) ) ;
#143 = DIRECTION ( 'NONE',  ( -3.491481338843133355E-15, 0.0000000000000000000, -1.000000000000000000 ) ) ;
#144 = PERSON_AND_ORGANIZATION ( #56, #114 ) ;
#145 = DIRECTION ( 'NONE',  ( 1.000000000000000000, 0.0000000000000000000, -3.491481338843133355E-15 ) ) ;
#146 = APPROVAL_PERSON_ORGANIZATION ( #235, #22, #202 ) ;
#147 = APPROVAL_ROLE ( '' ) ;
#148 = DIRECTION ( 'NONE',  ( -1.000000000000000000, 0.0000000000000000000, 3.491481338843133355E-15 ) ) ;
#149 = PERSON_AND_ORGANIZATION_ROLE ( 'design_owner' ) ;
#150 = FACE_OUTER_BOUND ( 'NONE', #15, .T. ) ;
#151 = ADVANCED_FACE ( 'NONE', ( #27, #85 ), #213, .T. ) ;
#152 = AXIS2_PLACEMENT_3D ( 'NONE', #61, #143, #46 ) ;
#153 = DIRECTION ( 'NONE',  ( 3.491481338843133355E-15, -0.0000000000000000000, 1.000000000000000000 ) ) ;
#154 = AXIS2_PLACEMENT_3D ( 'NONE', #24, #182, #135 ) ;
#155 = VERTEX_POINT ( 'NONE', #80 ) ;
#156 = DIRECTION ( 'NONE',  ( 1.000000000000000000, 0.0000000000000000000, -3.469446951953614189E-15 ) ) ;
#157 = CARTESIAN_POINT ( 'NONE',  ( 1.850485109586860047E-15, -5.746271514173171035E-17, 0.5299999999999999156 ) ) ;
#158 = MANIFOLD_SOLID_BREP ( 'Corps-Déplacer/Copier1[1]', #106 ) ;
#159 = EDGE_CURVE ( 'NONE', #210, #210, #138, .T. ) ;
#160 = DIRECTION ( 'NONE',  ( 3.491481338843133355E-15, -0.0000000000000000000, 1.000000000000000000 ) ) ;
#161 = AXIS2_PLACEMENT_3D ( 'NONE', #137, #162, #220 ) ;
#162 = DIRECTION ( 'NONE',  ( 3.491481338843133355E-15, -0.0000000000000000000, 1.000000000000000000 ) ) ;
#163 = PERSON_AND_ORGANIZATION ( #56, #114 ) ;
#164 = PERSON_AND_ORGANIZATION ( #56, #114 ) ;
#165 = DIRECTION ( 'NONE',  ( 1.000000000000000000, 0.0000000000000000000, -4.336808689942017736E-15 ) ) ;
#166 = CC_DESIGN_DATE_AND_TIME_ASSIGNMENT ( #8, #87, ( #177 ) ) ;
#167 = DATE_AND_TIME ( #44, #170 ) ;
#168 = APPLICATION_CONTEXT ( 'configuration controlled 3d designs of mechanical parts and assemblies' ) ;
#169 = EDGE_LOOP ( 'NONE', ( #108 ) ) ;
#170 = LOCAL_TIME ( 7, 47, 4.000000000000000000, #215 ) ;
#171 = APPROVAL_STATUS ( 'not_yet_approved' ) ;
#172 = CARTESIAN_POINT ( 'NONE',  ( 1.850485109586860047E-15, -5.746271514173171035E-17, 0.5299999999999999156 ) ) ;
#173 = CARTESIAN_POINT ( 'NONE',  ( 2.000000000000026645, 0.0000000000000000000, 7.604297718988162202 ) ) ;
#174 = CYLINDRICAL_SURFACE ( 'NONE', #230, 2.000000000000000000 ) ;
#175 = EDGE_CURVE ( 'NONE', #115, #115, #207, .T. ) ;
#176 = AXIS2_PLACEMENT_3D ( 'NONE', #121, #104, #6 ) ;
#177 = SECURITY_CLASSIFICATION ( '', '', #7 ) ;
#178 = CC_DESIGN_PERSON_AND_ORGANIZATION_ASSIGNMENT ( #164, #32, ( #225 ) ) ;
#179 = DIRECTION ( 'NONE',  ( 3.491481338843133355E-15, -0.0000000000000000000, 1.000000000000000000 ) ) ;
#180 = FACE_OUTER_BOUND ( 'NONE', #110, .T. ) ;
#181 = PLANE ( 'NONE',  #77 ) ;
#182 = DIRECTION ( 'NONE',  ( 3.491481338843133355E-15, -0.0000000000000000000, 1.000000000000000000 ) ) ;
#183 = PERSON_AND_ORGANIZATION_ROLE ( 'design_supplier' ) ;
#184 = DIRECTION ( 'NONE',  ( -1.000000000000000000, 0.0000000000000000000, 4.336808689942017736E-15 ) ) ;
#185 = CONICAL_SURFACE ( 'NONE', #2, 2.000000000000000000, 0.2617993877991428020 ) ;
#186 = COORDINATED_UNIVERSAL_TIME_OFFSET ( 1, 0, .AHEAD. ) ;
#187 = CC_DESIGN_PERSON_AND_ORGANIZATION_ASSIGNMENT ( #219, #47, ( #78 ) ) ;
#188 = DIRECTION ( 'NONE',  ( 3.491481338843133355E-15, -0.0000000000000000000, 1.000000000000000000 ) ) ;
#189 = APPLICATION_PROTOCOL_DEFINITION ( 'international standard', 'config_control_design', 1994, #117 ) ;
#190 = FACE_BOUND ( 'NONE', #169, .T. ) ;
#191 = AXIS2_PLACEMENT_3D ( 'NONE', #228, #153, #165 ) ;
#192 = ORIENTED_EDGE ( 'NONE', *, *, #233, .T. ) ;
#193 = CC_DESIGN_APPROVAL ( #22, ( #78 ) ) ;
#194 = DIRECTION ( 'NONE',  ( -1.000000000000000000, 0.0000000000000000000, 3.491481338843133355E-15 ) ) ;
#195 = DIRECTION ( 'NONE',  ( 1.000000000000000000, 0.0000000000000000000, -3.491481338843133355E-15 ) ) ;
#196 = APPROVAL ( #69, 'UNSPECIFIED' ) ;
#197 = EDGE_CURVE ( 'NONE', #74, #74, #75, .T. ) ;
#198 = AXIS2_PLACEMENT_3D ( 'NONE', #204, #12, #93 ) ;
#199 = EDGE_CURVE ( 'NONE', #132, #132, #130, .T. ) ;
#200 = ORIENTED_EDGE ( 'NONE', *, *, #231, .T. ) ;
#201 = FACE_OUTER_BOUND ( 'NONE', #45, .T. ) ;
#202 = APPROVAL_ROLE ( '' ) ;
#203 = EDGE_LOOP ( 'NONE', ( #112 ) ) ;
#204 = CARTESIAN_POINT ( 'NONE',  ( 0.0000000000000000000, 0.0000000000000000000, 0.0000000000000000000 ) ) ;
#205 = ORIENTED_EDGE ( 'NONE', *, *, #175, .T. ) ;
#206 = APPROVAL_STATUS ( 'not_yet_approved' ) ;
#207 = CIRCLE ( 'NONE', #100, 0.1749999999999998224 ) ;
#208 = ADVANCED_FACE ( 'NONE', ( #190, #84 ), #185, .T. ) ;
#209 = CC_DESIGN_SECURITY_CLASSIFICATION ( #177, ( #78 ) ) ;
#210 = VERTEX_POINT ( 'NONE', #38 ) ;
#211 = CARTESIAN_POINT ( 'NONE',  ( 1.850485109586859258E-15, 0.0000000000000000000, 0.5299999999999996936 ) ) ;
#212 = ADVANCED_FACE ( 'NONE', ( #124 ), #232, .T. ) ;
#213 = CONICAL_SURFACE ( 'NONE', #1, 1.600000000000000089, 0.7853981633974512766 ) ;
#214 = APPROVAL_PERSON_ORGANIZATION ( #238, #196, #147 ) ;
#215 = COORDINATED_UNIVERSAL_TIME_OFFSET ( 1, 0, .AHEAD. ) ;
#216 = CARTESIAN_POINT ( 'NONE',  ( 2.655026358085459608E-14, 0.0000000000000000000, 7.604297718988168420 ) ) ;
#217 = ADVANCED_FACE ( 'NONE', ( #126, #201 ), #140, .T. ) ;
#218 = COORDINATED_UNIVERSAL_TIME_OFFSET ( 1, 0, .AHEAD. ) ;
#219 = PERSON_AND_ORGANIZATION ( #56, #114 ) ;
#220 = DIRECTION ( 'NONE',  ( 1.000000000000000000, 0.0000000000000000000, -3.469446951953614189E-15 ) ) ;
#221 = COORDINATED_UNIVERSAL_TIME_OFFSET ( 1, 0, .AHEAD. ) ;
#222 = ORIENTED_EDGE ( 'NONE', *, *, #159, .F. ) ;
#223 = CARTESIAN_POINT ( 'NONE',  ( 2.000000000000131450, 0.0000000000000000000, 37.59999999999999432 ) ) ;
#224 = FACE_OUTER_BOUND ( 'NONE', #94, .T. ) ;
#225 = PRODUCT_DEFINITION ( 'UNKNOWN', '', #78, #59 ) ;
#226 = SHAPE_DEFINITION_REPRESENTATION ( #52, #21 ) ;
#227 = AXIS2_PLACEMENT_3D ( 'NONE', #3, #179, #41 ) ;
#228 = CARTESIAN_POINT ( 'NONE',  ( 1.326762908760390423E-13, 0.0000000000000000000, 38.00000000000000000 ) ) ;
#229 = DIRECTION ( 'NONE',  ( -3.491481338843133355E-15, 0.0000000000000000000, -1.000000000000000000 ) ) ;
#230 = AXIS2_PLACEMENT_3D ( 'NONE', #242, #76, #89 ) ;
#231 = EDGE_CURVE ( 'NONE', #155, #155, #43, .T. ) ;
#232 = PLANE ( 'NONE',  #152 ) ;
#233 = EDGE_CURVE ( 'NONE', #57, #57, #131, .T. ) ;
#234 = MANIFOLD_SOLID_BREP ( 'Corps-Déplacer/Copier1[2]', #119 ) ;
#235 = PERSON_AND_ORGANIZATION ( #56, #114 ) ;
#236 = CALENDAR_DATE ( 2021, 9, 11 ) ;
#237 = FACE_OUTER_BOUND ( 'NONE', #103, .T. ) ;
#238 = PERSON_AND_ORGANIZATION ( #56, #114 ) ;
#239 = ORIENTED_EDGE ( 'NONE', *, *, #197, .T. ) ;
#240 = ADVANCED_FACE ( 'NONE', ( #101, #180 ), #14, .F. ) ;
#241 = EDGE_LOOP ( 'NONE', ( #239 ) ) ;
#242 = CARTESIAN_POINT ( 'NONE',  ( 0.0000000000000000000, 0.0000000000000000000, 0.0000000000000000000 ) ) ;
#243 = APPROVAL ( #206, 'UNSPECIFIED' ) ;
ENDSEC;
END-ISO-10303-21;
