ISO-10303-21;
HEADER;
FILE_DESCRIPTION (( 'STEP AP203' ),
    '1' );
FILE_NAME ('334854.step',
    '2021-11-09T06:47:04',
    ( '' ),
    ( '' ),
    'SwSTEP 2.0',
    'SolidWorks 2019',
    '' );
FILE_SCHEMA (( 'CONFIG_CONTROL_DESIGN' ));
ENDSEC;

DATA;
#1 = APPROVAL_STATUS ( 'not_yet_approved' ) ;
#2 = AXIS2_PLACEMENT_3D ( 'NONE', #120, #155, #80 ) ;
#3 = VERTEX_POINT ( 'NONE', #167 ) ;
#4 = CC_DESIGN_SECURITY_CLASSIFICATION ( #218, ( #165 ) ) ;
#5 = EDGE_CURVE ( 'NONE', #3, #3, #48, .T. ) ;
#6 = AXIS2_PLACEMENT_3D ( 'NONE', #137, #237, #64 ) ;
#7 = CALENDAR_DATE ( 2021, 9, 11 ) ;
#8 = APPROVAL_ROLE ( '' ) ;
#9 = AXIS2_PLACEMENT_3D ( 'NONE', #153, #136, #100 ) ;
#10 = PERSON_AND_ORGANIZATION_ROLE ( 'creator' ) ;
#11 = EDGE_LOOP ( 'NONE', ( #49 ) ) ;
#12 = ORIENTED_EDGE ( 'NONE', *, *, #191, .F. ) ;
#13 = FACE_OUTER_BOUND ( 'NONE', #30, .T. ) ;
#14 = DIRECTION ( 'NONE',  ( 1.000000000000000000, 0.0000000000000000000, -3.491481338843133355E-15 ) ) ;
#15 = EDGE_LOOP ( 'NONE', ( #23 ) ) ;
#16 = EDGE_CURVE ( 'NONE', #71, #71, #77, .T. ) ;
#17 = VERTEX_POINT ( 'NONE', #31 ) ;
#18 = CLOSED_SHELL ( 'NONE', ( #229, #211, #61 ) ) ;
#19 = ADVANCED_FACE ( 'NONE', ( #238, #65 ), #36, .F. ) ;
#20 = DIRECTION ( 'NONE',  ( 1.000000000000000000, 0.0000000000000000000, -3.469446951953614189E-15 ) ) ;
#21 = PERSON_AND_ORGANIZATION ( #27, #184 ) ;
#22 = AXIS2_PLACEMENT_3D ( 'NONE', #51, #201, #67 ) ;
#23 = ORIENTED_EDGE ( 'NONE', *, *, #5, .F. ) ;
#24 = DIRECTION ( 'NONE',  ( -1.000000000000000000, 0.0000000000000000000, 4.336808689942017736E-15 ) ) ;
#25 = CIRCLE ( 'NONE', #6, 0.1499999999999999667 ) ;
#26 =( NAMED_UNIT ( * ) SI_UNIT ( $, .STERADIAN. ) SOLID_ANGLE_UNIT ( ) );
#27 = PERSON ( 'UNSPECIFIED', 'UNSPECIFIED', 'UNSPECIFIED', ('UNSPECIFIED'), ('UNSPECIFIED'), ('UNSPECIFIED') ) ;
#28 = UNCERTAINTY_MEASURE_WITH_UNIT (LENGTH_MEASURE( 1.000000000000000082E-05 ), #55, 'distance_accuracy_value', 'NONE');
#29 = ORIENTED_EDGE ( 'NONE', *, *, #151, .F. ) ;
#30 = EDGE_LOOP ( 'NONE', ( #182 ) ) ;
#31 = CARTESIAN_POINT ( 'NONE',  ( 0.1500000000000015210, 0.0000000000000000000, 0.4499999999999990674 ) ) ;
#32 = ORIENTED_EDGE ( 'NONE', *, *, #151, .T. ) ;
#33 = FACE_OUTER_BOUND ( 'NONE', #178, .T. ) ;
#34 = AXIS2_PLACEMENT_3D ( 'NONE', #210, #147, #40 ) ;
#35 = VERTEX_POINT ( 'NONE', #122 ) ;
#36 = TOROIDAL_SURFACE ( 'NONE', #22, 2.150000000000000355, 2.000000000000000000 ) ;
#37 = CC_DESIGN_DATE_AND_TIME_ASSIGNMENT ( #225, #92, ( #218 ) ) ;
#38 = AXIS2_PLACEMENT_3D ( 'NONE', #131, #213, #148 ) ;
#39 = DIRECTION ( 'NONE',  ( 3.491481338843133355E-15, -0.0000000000000000000, 1.000000000000000000 ) ) ;
#40 = DIRECTION ( 'NONE',  ( 1.000000000000000000, 0.0000000000000000000, 0.0000000000000000000 ) ) ;
#41 = PERSON_AND_ORGANIZATION ( #27, #184 ) ;
#42 = CIRCLE ( 'NONE', #2, 0.2181483474218604279 ) ;
#43 = AXIS2_PLACEMENT_3D ( 'NONE', #128, #179, #199 ) ;
#44 = APPROVAL_DATE_TIME ( #234, #241 ) ;
#45 = EDGE_LOOP ( 'NONE', ( #12 ) ) ;
#46 = FACE_OUTER_BOUND ( 'NONE', #63, .T. ) ;
#47 = DIRECTION ( 'NONE',  ( 1.000000000000000000, 0.0000000000000000000, -3.469446951953614189E-15 ) ) ;
#48 = CIRCLE ( 'NONE', #188, 2.000000000000000000 ) ;
#49 = ORIENTED_EDGE ( 'NONE', *, *, #143, .T. ) ;
#50 = DIRECTION ( 'NONE',  ( 3.491481338843133355E-15, -0.0000000000000000000, 1.000000000000000000 ) ) ;
#51 = CARTESIAN_POINT ( 'NONE',  ( 1.571166602479409615E-15, 0.0000000000000000000, 0.4499999999999999001 ) ) ;
#52 = AXIS2_PLACEMENT_3D ( 'NONE', #126, #39, #20 ) ;
#53 = CARTESIAN_POINT ( 'NONE',  ( 0.1500000000000015210, 0.0000000000000000000, 0.4499999999999990674 ) ) ;
#54 = CC_DESIGN_DATE_AND_TIME_ASSIGNMENT ( #175, #96, ( #159 ) ) ;
#55 =( LENGTH_UNIT ( ) NAMED_UNIT ( * ) SI_UNIT ( .MILLI., .METRE. ) );
#56 = CONICAL_SURFACE ( 'NONE', #236, 1.600000000000000089, 0.7853981633974512766 ) ;
#57 = PERSON_AND_ORGANIZATION ( #27, #184 ) ;
#58 = DIRECTION ( 'NONE',  ( 3.491481338843133355E-15, -0.0000000000000000000, 1.000000000000000000 ) ) ;
#59 = APPROVAL_ROLE ( '' ) ;
#60 = PERSON_AND_ORGANIZATION_ROLE ( 'design_owner' ) ;
#61 = ADVANCED_FACE ( 'NONE', ( #13 ), #84, .F. ) ;
#62 = SECURITY_CLASSIFICATION_LEVEL ( 'unclassified' ) ;
#63 = EDGE_LOOP ( 'NONE', ( #111 ) ) ;
#64 = DIRECTION ( 'NONE',  ( 1.000000000000000000, 0.0000000000000000000, -3.491481338843132961E-15 ) ) ;
#65 = FACE_OUTER_BOUND ( 'NONE', #214, .T. ) ;
#66 = DIRECTION ( 'NONE',  ( 1.000000000000000000, 0.0000000000000000000, -3.469446951953614189E-15 ) ) ;
#67 = DIRECTION ( 'NONE',  ( 1.000000000000000000, 0.0000000000000000000, -3.491481338843133355E-15 ) ) ;
#68 = VERTEX_POINT ( 'NONE', #219 ) ;
#69 = FACE_OUTER_BOUND ( 'NONE', #240, .T. ) ;
#70 = LOCAL_TIME ( 7, 47, 4.000000000000000000, #144 ) ;
#71 = VERTEX_POINT ( 'NONE', #53 ) ;
#72 = APPROVAL_DATE_TIME ( #206, #127 ) ;
#73 = FACE_BOUND ( 'NONE', #180, .T. ) ;
#74 = APPROVAL_DATE_TIME ( #145, #78 ) ;
#75 = CYLINDRICAL_SURFACE ( 'NONE', #107, 0.1499999999999999667 ) ;
#76 = COORDINATED_UNIVERSAL_TIME_OFFSET ( 1, 0, .AHEAD. ) ;
#77 = CIRCLE ( 'NONE', #106, 0.1499999999999999667 ) ;
#78 = APPROVAL ( #170, 'UNSPECIFIED' ) ;
#79 = PERSON_AND_ORGANIZATION_ROLE ( 'design_supplier' ) ;
#80 = DIRECTION ( 'NONE',  ( 1.000000000000000000, 0.0000000000000000000, -3.479015677676412045E-15 ) ) ;
#81 = ORIENTED_EDGE ( 'NONE', *, *, #143, .F. ) ;
#82 = LOCAL_TIME ( 7, 47, 4.000000000000000000, #76 ) ;
#83 = CARTESIAN_POINT ( 'NONE',  ( 1.571166602479408629E-15, 0.0000000000000000000, 0.4499999999999996225 ) ) ;
#84 = PLANE ( 'NONE',  #9 ) ;
#85 = APPROVAL_PERSON_ORGANIZATION ( #123, #127, #125 ) ;
#86 = PLANE ( 'NONE',  #116 ) ;
#87 = ADVANCED_FACE ( 'NONE', ( #217 ), #118, .T. ) ;
#88 = ADVANCED_BREP_SHAPE_REPRESENTATION ( '334854', ( #228, #227, #34 ), #172 ) ;
#89 = AXIS2_PLACEMENT_3D ( 'NONE', #140, #186, #158 ) ;
#90 = CALENDAR_DATE ( 2021, 9, 11 ) ;
#91 = DIRECTION ( 'NONE',  ( 3.491481338843133355E-15, -0.0000000000000000000, 1.000000000000000000 ) ) ;
#92 = DATE_TIME_ROLE ( 'classification_date' ) ;
#93 = ORIENTED_EDGE ( 'NONE', *, *, #119, .F. ) ;
#94 = COORDINATED_UNIVERSAL_TIME_OFFSET ( 1, 0, .AHEAD. ) ;
#95 = DESIGN_CONTEXT ( 'detailed design', #103, 'design' ) ;
#96 = DATE_TIME_ROLE ( 'creation_date' ) ;
#97 = EDGE_LOOP ( 'NONE', ( #32 ) ) ;
#98 = CARTESIAN_POINT ( 'NONE',  ( 1.312796983405018142E-13, 0.0000000000000000000, 37.60000000000000142 ) ) ;
#99 = EDGE_LOOP ( 'NONE', ( #93 ) ) ;
#100 = DIRECTION ( 'NONE',  ( -1.000000000000000000, 0.0000000000000000000, 3.491481338843133355E-15 ) ) ;
#101 = CC_DESIGN_APPROVAL ( #241, ( #165 ) ) ;
#102 = VERTEX_POINT ( 'NONE', #187 ) ;
#103 = APPLICATION_CONTEXT ( 'configuration controlled 3d designs of mechanical parts and assemblies' ) ;
#104 = VERTEX_POINT ( 'NONE', #205 ) ;
#105 = FACE_BOUND ( 'NONE', #11, .T. ) ;
#106 = AXIS2_PLACEMENT_3D ( 'NONE', #83, #216, #152 ) ;
#107 = AXIS2_PLACEMENT_3D ( 'NONE', #109, #58, #146 ) ;
#108 = CALENDAR_DATE ( 2021, 9, 11 ) ;
#109 = CARTESIAN_POINT ( 'NONE',  ( 0.0000000000000000000, 0.0000000000000000000, 0.0000000000000000000 ) ) ;
#110 = PERSON_AND_ORGANIZATION ( #27, #184 ) ;
#111 = ORIENTED_EDGE ( 'NONE', *, *, #5, .T. ) ;
#112 = PLANE ( 'NONE',  #43 ) ;
#113 = ORIENTED_EDGE ( 'NONE', *, *, #243, .T. ) ;
#114 = CC_DESIGN_PERSON_AND_ORGANIZATION_ASSIGNMENT ( #21, #79, ( #165 ) ) ;
#115 = ORIENTED_EDGE ( 'NONE', *, *, #16, .F. ) ;
#116 = AXIS2_PLACEMENT_3D ( 'NONE', #157, #50, #14 ) ;
#117 = APPROVAL_PERSON_ORGANIZATION ( #193, #241, #8 ) ;
#118 = PLANE ( 'NONE',  #38 ) ;
#119 = EDGE_CURVE ( 'NONE', #104, #104, #149, .T. ) ;
#120 = CARTESIAN_POINT ( 'NONE',  ( 3.378490334704665602E-15, 0.0000000000000000000, 0.9676380902050284449 ) ) ;
#121 = CIRCLE ( 'NONE', #142, 1.600000000000000089 ) ;
#122 = CARTESIAN_POINT ( 'NONE',  ( 0.2181483474218638141, 0.0000000000000000000, 0.9676380902050277788 ) ) ;
#123 = PERSON_AND_ORGANIZATION ( #27, #184 ) ;
#124 = FACE_OUTER_BOUND ( 'NONE', #99, .T. ) ;
#125 = APPROVAL_ROLE ( '' ) ;
#126 = CARTESIAN_POINT ( 'NONE',  ( 2.659670471750317162E-14, 0.0000000000000000000, 7.617598989177388979 ) ) ;
#127 = APPROVAL ( #1, 'UNSPECIFIED' ) ;
#128 = CARTESIAN_POINT ( 'NONE',  ( -4.915890506466203054E-37, 0.0000000000000000000, -1.407967000074253141E-22 ) ) ;
#129 = COORDINATED_UNIVERSAL_TIME_OFFSET ( 1, 0, .AHEAD. ) ;
#130 = PERSON_AND_ORGANIZATION ( #27, #184 ) ;
#131 = CARTESIAN_POINT ( 'NONE',  ( 1.571166602479409615E-15, -6.098637220230958744E-17, 0.4499999999999999001 ) ) ;
#132 = FACE_OUTER_BOUND ( 'NONE', #242, .T. ) ;
#133 = DIRECTION ( 'NONE',  ( 3.491481338843133355E-15, -0.0000000000000000000, 1.000000000000000000 ) ) ;
#134 = CYLINDRICAL_SURFACE ( 'NONE', #156, 2.000000000000000000 ) ;
#135 = EDGE_LOOP ( 'NONE', ( #203 ) ) ;
#136 = DIRECTION ( 'NONE',  ( -3.491481338843133355E-15, 0.0000000000000000000, -1.000000000000000000 ) ) ;
#137 = CARTESIAN_POINT ( 'NONE',  ( -9.831781012932406109E-37, 0.0000000000000000000, -2.815934000148506281E-22 ) ) ;
#138 = ADVANCED_FACE ( 'NONE', ( #33 ), #86, .T. ) ;
#139 = APPROVAL_PERSON_ORGANIZATION ( #130, #78, #59 ) ;
#140 = CARTESIAN_POINT ( 'NONE',  ( 1.571166602479408629E-15, 0.0000000000000000000, 0.4499999999999996225 ) ) ;
#141 = DIRECTION ( 'NONE',  ( 3.491481338843133355E-15, -0.0000000000000000000, 1.000000000000000000 ) ) ;
#142 = AXIS2_PLACEMENT_3D ( 'NONE', #207, #91, #164 ) ;
#143 = EDGE_CURVE ( 'NONE', #35, #35, #42, .T. ) ;
#144 = COORDINATED_UNIVERSAL_TIME_OFFSET ( 1, 0, .AHEAD. ) ;
#145 = DATE_AND_TIME ( #7, #230 ) ;
#146 = DIRECTION ( 'NONE',  ( 1.000000000000000000, 0.0000000000000000000, -3.491481338843132961E-15 ) ) ;
#147 = DIRECTION ( 'NONE',  ( 0.0000000000000000000, 0.0000000000000000000, 1.000000000000000000 ) ) ;
#148 = DIRECTION ( 'NONE',  ( -1.000000000000000000, 0.0000000000000000000, 3.491481338843133355E-15 ) ) ;
#149 = CIRCLE ( 'NONE', #171, 2.000000000000000000 ) ;
#150 = CC_DESIGN_APPROVAL ( #127, ( #218 ) ) ;
#151 = EDGE_CURVE ( 'NONE', #102, #102, #25, .T. ) ;
#152 = DIRECTION ( 'NONE',  ( 1.000000000000000000, 0.0000000000000000000, -3.614007241618349165E-15 ) ) ;
#153 = CARTESIAN_POINT ( 'NONE',  ( 1.571166602479409615E-15, -6.098637220230958744E-17, 0.4499999999999999001 ) ) ;
#154 = APPLICATION_CONTEXT ( 'configuration controlled 3d designs of mechanical parts and assemblies' ) ;
#155 = DIRECTION ( 'NONE',  ( 3.491481338843133355E-15, -0.0000000000000000000, 1.000000000000000000 ) ) ;
#156 = AXIS2_PLACEMENT_3D ( 'NONE', #224, #141, #226 ) ;
#157 = CARTESIAN_POINT ( 'NONE',  ( 1.326762908760390423E-13, 0.0000000000000000000, 38.00000000000000000 ) ) ;
#158 = DIRECTION ( 'NONE',  ( 1.000000000000000000, 0.0000000000000000000, -3.614007241618349165E-15 ) ) ;
#159 = PRODUCT_DEFINITION ( 'UNKNOWN', '', #165, #95 ) ;
#160 = CIRCLE ( 'NONE', #89, 0.1499999999999999667 ) ;
#161 = PRODUCT_DEFINITION_SHAPE ( 'NONE', 'NONE',  #159 ) ;
#162 = PERSON_AND_ORGANIZATION_ROLE ( 'classification_officer' ) ;
#163 = ADVANCED_FACE ( 'NONE', ( #220, #69 ), #134, .T. ) ;
#164 = DIRECTION ( 'NONE',  ( 1.000000000000000000, 0.0000000000000000000, -4.336808689942017736E-15 ) ) ;
#165 = PRODUCT_DEFINITION_FORMATION_WITH_SPECIFIED_SOURCE ( 'ANY', '', #185, .NOT_KNOWN. ) ;
#166 = SHAPE_DEFINITION_REPRESENTATION ( #161, #88 ) ;
#167 = CARTESIAN_POINT ( 'NONE',  ( 2.000000000000131450, 0.0000000000000000000, 37.59999999999999432 ) ) ;
#168 = CALENDAR_DATE ( 2021, 9, 11 ) ;
#169 = PERSON_AND_ORGANIZATION ( #27, #184 ) ;
#170 = APPROVAL_STATUS ( 'not_yet_approved' ) ;
#171 = AXIS2_PLACEMENT_3D ( 'NONE', #198, #239, #66 ) ;
#172 =( GEOMETRIC_REPRESENTATION_CONTEXT ( 3 ) GLOBAL_UNCERTAINTY_ASSIGNED_CONTEXT ( ( #28 ) ) GLOBAL_UNIT_ASSIGNED_CONTEXT ( ( #55, #209, #26 ) ) REPRESENTATION_CONTEXT ( 'NONE', 'WORKASPACE' ) );
#173 = EDGE_LOOP ( 'NONE', ( #115 ) ) ;
#174 = FACE_OUTER_BOUND ( 'NONE', #97, .T. ) ;
#175 = DATE_AND_TIME ( #108, #195 ) ;
#176 = CALENDAR_DATE ( 2021, 9, 11 ) ;
#177 = CC_DESIGN_PERSON_AND_ORGANIZATION_ASSIGNMENT ( #169, #162, ( #218 ) ) ;
#178 = EDGE_LOOP ( 'NONE', ( #113 ) ) ;
#179 = DIRECTION ( 'NONE',  ( -3.491481338843133355E-15, 0.0000000000000000000, -1.000000000000000000 ) ) ;
#180 = EDGE_LOOP ( 'NONE', ( #200 ) ) ;
#181 = DIRECTION ( 'NONE',  ( -3.491481338843133355E-15, 0.0000000000000000000, -1.000000000000000000 ) ) ;
#182 = ORIENTED_EDGE ( 'NONE', *, *, #191, .T. ) ;
#183 = ORIENTED_EDGE ( 'NONE', *, *, #119, .T. ) ;
#184 = ORGANIZATION ( 'UNSPECIFIED', 'UNSPECIFIED', '' ) ;
#185 = PRODUCT ( '334854', '334854', '', ( #194 ) ) ;
#186 = DIRECTION ( 'NONE',  ( 3.491481338843133355E-15, -0.0000000000000000000, 1.000000000000000000 ) ) ;
#187 = CARTESIAN_POINT ( 'NONE',  ( 0.1499999999999999667, 0.0000000000000000000, -5.237224824198698808E-16 ) ) ;
#188 = AXIS2_PLACEMENT_3D ( 'NONE', #98, #133, #47 ) ;
#189 = CC_DESIGN_PERSON_AND_ORGANIZATION_ASSIGNMENT ( #57, #60, ( #185 ) ) ;
#190 = COORDINATED_UNIVERSAL_TIME_OFFSET ( 1, 0, .AHEAD. ) ;
#191 = EDGE_CURVE ( 'NONE', #17, #17, #160, .T. ) ;
#192 = CC_DESIGN_APPROVAL ( #78, ( #159 ) ) ;
#193 = PERSON_AND_ORGANIZATION ( #27, #184 ) ;
#194 = MECHANICAL_CONTEXT ( 'NONE', #154, 'mechanical' ) ;
#195 = LOCAL_TIME ( 7, 47, 4.000000000000000000, #94 ) ;
#196 = ADVANCED_FACE ( 'NONE', ( #46, #73 ), #56, .T. ) ;
#197 = APPLICATION_PROTOCOL_DEFINITION ( 'international standard', 'config_control_design', 1994, #103 ) ;
#198 = CARTESIAN_POINT ( 'NONE',  ( 2.659670471750317162E-14, 0.0000000000000000000, 7.617598989177388979 ) ) ;
#199 = DIRECTION ( 'NONE',  ( -1.000000000000000000, 0.0000000000000000000, 3.491481338843133355E-15 ) ) ;
#200 = ORIENTED_EDGE ( 'NONE', *, *, #243, .F. ) ;
#201 = DIRECTION ( 'NONE',  ( 3.491481338843133355E-15, -0.0000000000000000000, 1.000000000000000000 ) ) ;
#202 = CONICAL_SURFACE ( 'NONE', #52, 2.000000000000000000, 0.2617993877991428020 ) ;
#203 = ORIENTED_EDGE ( 'NONE', *, *, #16, .T. ) ;
#204 = PRODUCT_RELATED_PRODUCT_CATEGORY ( 'detail', '', ( #185 ) ) ;
#205 = CARTESIAN_POINT ( 'NONE',  ( 2.000000000000026645, 0.0000000000000000000, 7.617598989177381874 ) ) ;
#206 = DATE_AND_TIME ( #168, #223 ) ;
#207 = CARTESIAN_POINT ( 'NONE',  ( 1.326762908760390423E-13, 0.0000000000000000000, 38.00000000000000000 ) ) ;
#208 = CC_DESIGN_PERSON_AND_ORGANIZATION_ASSIGNMENT ( #110, #10, ( #165 ) ) ;
#209 =( NAMED_UNIT ( * ) PLANE_ANGLE_UNIT ( ) SI_UNIT ( $, .RADIAN. ) );
#210 = CARTESIAN_POINT ( 'NONE',  ( 0.0000000000000000000, 0.0000000000000000000, 0.0000000000000000000 ) ) ;
#211 = ADVANCED_FACE ( 'NONE', ( #174, #231 ), #75, .T. ) ;
#212 = PERSON_AND_ORGANIZATION_ROLE ( 'creator' ) ;
#213 = DIRECTION ( 'NONE',  ( -3.491481338843133355E-15, 0.0000000000000000000, -1.000000000000000000 ) ) ;
#214 = EDGE_LOOP ( 'NONE', ( #81 ) ) ;
#215 = CARTESIAN_POINT ( 'NONE',  ( 1.326762908760390423E-13, 0.0000000000000000000, 38.00000000000000000 ) ) ;
#216 = DIRECTION ( 'NONE',  ( 3.491481338843133355E-15, -0.0000000000000000000, 1.000000000000000000 ) ) ;
#217 = FACE_OUTER_BOUND ( 'NONE', #173, .T. ) ;
#218 = SECURITY_CLASSIFICATION ( '', '', #62 ) ;
#219 = CARTESIAN_POINT ( 'NONE',  ( 1.600000000000132871, 0.0000000000000000000, 37.99999999999999289 ) ) ;
#220 = FACE_OUTER_BOUND ( 'NONE', #15, .T. ) ;
#221 = CLOSED_SHELL ( 'NONE', ( #163, #196, #138, #19, #233, #87 ) ) ;
#222 = CC_DESIGN_PERSON_AND_ORGANIZATION_ASSIGNMENT ( #41, #212, ( #159 ) ) ;
#223 = LOCAL_TIME ( 7, 47, 4.000000000000000000, #190 ) ;
#224 = CARTESIAN_POINT ( 'NONE',  ( 0.0000000000000000000, 0.0000000000000000000, 0.0000000000000000000 ) ) ;
#225 = DATE_AND_TIME ( #90, #70 ) ;
#226 = DIRECTION ( 'NONE',  ( 1.000000000000000000, 0.0000000000000000000, -3.491481338843133355E-15 ) ) ;
#227 = MANIFOLD_SOLID_BREP ( 'Corps-Déplacer/Copier1[2]', #18 ) ;
#228 = MANIFOLD_SOLID_BREP ( 'Corps-Déplacer/Copier1[1]', #221 ) ;
#229 = ADVANCED_FACE ( 'NONE', ( #132 ), #112, .T. ) ;
#230 = LOCAL_TIME ( 7, 47, 4.000000000000000000, #129 ) ;
#231 = FACE_OUTER_BOUND ( 'NONE', #45, .T. ) ;
#232 = APPLICATION_PROTOCOL_DEFINITION ( 'international standard', 'config_control_design', 1994, #154 ) ;
#233 = ADVANCED_FACE ( 'NONE', ( #105, #124 ), #202, .T. ) ;
#234 = DATE_AND_TIME ( #176, #82 ) ;
#235 = APPROVAL_STATUS ( 'not_yet_approved' ) ;
#236 = AXIS2_PLACEMENT_3D ( 'NONE', #215, #181, #24 ) ;
#237 = DIRECTION ( 'NONE',  ( 3.491481338843133355E-15, -0.0000000000000000000, 1.000000000000000000 ) ) ;
#238 = FACE_OUTER_BOUND ( 'NONE', #135, .T. ) ;
#239 = DIRECTION ( 'NONE',  ( 3.491481338843133355E-15, -0.0000000000000000000, 1.000000000000000000 ) ) ;
#240 = EDGE_LOOP ( 'NONE', ( #183 ) ) ;
#241 = APPROVAL ( #235, 'UNSPECIFIED' ) ;
#242 = EDGE_LOOP ( 'NONE', ( #29 ) ) ;
#243 = EDGE_CURVE ( 'NONE', #68, #68, #121, .T. ) ;
ENDSEC;
END-ISO-10303-21;
