ISO-10303-21;
HEADER;
FILE_DESCRIPTION (( 'STEP AP203' ),
    '1' );
FILE_NAME ('334853.step',
    '2021-11-09T06:47:03',
    ( '' ),
    ( '' ),
    'SwSTEP 2.0',
    'SolidWorks 2019',
    '' );
FILE_SCHEMA (( 'CONFIG_CONTROL_DESIGN' ));
ENDSEC;

DATA;
#1 = LOCAL_TIME ( 7, 47, 3.000000000000000000, #45 ) ;
#2 = APPROVAL_DATE_TIME ( #139, #24 ) ;
#3 = CIRCLE ( 'NONE', #44, 0.1250000000000001110 ) ;
#4 = CALENDAR_DATE ( 2021, 9, 11 ) ;
#5 = CC_DESIGN_DATE_AND_TIME_ASSIGNMENT ( #40, #195, ( #154 ) ) ;
#6 = FACE_OUTER_BOUND ( 'NONE', #231, .T. ) ;
#7 = APPROVAL_STATUS ( 'not_yet_approved' ) ;
#8 = EDGE_LOOP ( 'NONE', ( #98 ) ) ;
#9 = DATE_AND_TIME ( #4, #146 ) ;
#10 = CONICAL_SURFACE ( 'NONE', #210, 1.600000000000000089, 0.7853981633974512766 ) ;
#11 = EDGE_LOOP ( 'NONE', ( #126 ) ) ;
#12 = DIRECTION ( 'NONE',  ( 3.491481338843133355E-15, -0.0000000000000000000, 1.000000000000000000 ) ) ;
#13 = DESIGN_CONTEXT ( 'detailed design', #39, 'design' ) ;
#14 = MANIFOLD_SOLID_BREP ( 'Corps-Déplacer/Copier1[2]', #196 ) ;
#15 = EDGE_LOOP ( 'NONE', ( #156 ) ) ;
#16 = FACE_OUTER_BOUND ( 'NONE', #145, .T. ) ;
#17 = CC_DESIGN_PERSON_AND_ORGANIZATION_ASSIGNMENT ( #47, #176, ( #25 ) ) ;
#18 = CARTESIAN_POINT ( 'NONE',  ( 2.000000000000027089, 0.0000000000000000000, 7.640900259366609326 ) ) ;
#19 = VERTEX_POINT ( 'NONE', #37 ) ;
#20 = CC_DESIGN_APPROVAL ( #131, ( #154 ) ) ;
#21 = EDGE_CURVE ( 'NONE', #128, #128, #3, .T. ) ;
#22 = AXIS2_PLACEMENT_3D ( 'NONE', #215, #26, #221 ) ;
#23 = CC_DESIGN_SECURITY_CLASSIFICATION ( #162, ( #25 ) ) ;
#24 = APPROVAL ( #214, 'UNSPECIFIED' ) ;
#25 = PRODUCT_DEFINITION_FORMATION_WITH_SPECIFIED_SOURCE ( 'ANY', '', #208, .NOT_KNOWN. ) ;
#26 = DIRECTION ( 'NONE',  ( 3.491481338843133355E-15, -0.0000000000000000000, 1.000000000000000000 ) ) ;
#27 = UNCERTAINTY_MEASURE_WITH_UNIT (LENGTH_MEASURE( 1.000000000000000082E-05 ), #165, 'distance_accuracy_value', 'NONE');
#28 = PERSON_AND_ORGANIZATION_ROLE ( 'creator' ) ;
#29 = EDGE_LOOP ( 'NONE', ( #89 ) ) ;
#30 = FACE_OUTER_BOUND ( 'NONE', #152, .T. ) ;
#31 = AXIS2_PLACEMENT_3D ( 'NONE', #200, #61, #99 ) ;
#32 = DIRECTION ( 'NONE',  ( -3.491481338843133355E-15, 0.0000000000000000000, -1.000000000000000000 ) ) ;
#33 = DIRECTION ( 'NONE',  ( 3.491481338843133355E-15, -0.0000000000000000000, 1.000000000000000000 ) ) ;
#34 = ADVANCED_FACE ( 'NONE', ( #83, #6 ), #219, .T. ) ;
#35 = CARTESIAN_POINT ( 'NONE',  ( 0.1250000000000014433, 0.0000000000000000000, 0.3799999999999992273 ) ) ;
#36 = FACE_OUTER_BOUND ( 'NONE', #142, .T. ) ;
#37 = CARTESIAN_POINT ( 'NONE',  ( 2.000000000000131450, 0.0000000000000000000, 37.59999999999999432 ) ) ;
#38 = TOROIDAL_SURFACE ( 'NONE', #113, 2.124999999999999556, 2.000000000000000000 ) ;
#39 = APPLICATION_CONTEXT ( 'configuration controlled 3d designs of mechanical parts and assemblies' ) ;
#40 = DATE_AND_TIME ( #78, #175 ) ;
#41 = ADVANCED_FACE ( 'NONE', ( #186 ), #229, .T. ) ;
#42 = APPROVAL_ROLE ( '' ) ;
#43 = PLANE ( 'NONE',  #158 ) ;
#44 = AXIS2_PLACEMENT_3D ( 'NONE', #138, #178, #120 ) ;
#45 = COORDINATED_UNIVERSAL_TIME_OFFSET ( 1, 0, .AHEAD. ) ;
#46 = ORIENTED_EDGE ( 'NONE', *, *, #58, .T. ) ;
#47 = PERSON_AND_ORGANIZATION ( #188, #93 ) ;
#48 = CC_DESIGN_APPROVAL ( #117, ( #162 ) ) ;
#49 = DIRECTION ( 'NONE',  ( -3.491481338843133355E-15, 0.0000000000000000000, -1.000000000000000000 ) ) ;
#50 = PLANE ( 'NONE',  #69 ) ;
#51 = PRODUCT_DEFINITION_SHAPE ( 'NONE', 'NONE',  #154 ) ;
#52 = AXIS2_PLACEMENT_3D ( 'NONE', #197, #49, #123 ) ;
#53 = DIRECTION ( 'NONE',  ( 1.000000000000000000, 0.0000000000000000000, -3.491481338843133355E-15 ) ) ;
#54 = DIRECTION ( 'NONE',  ( 3.491481338843133355E-15, -0.0000000000000000000, 1.000000000000000000 ) ) ;
#55 = FACE_BOUND ( 'NONE', #81, .T. ) ;
#56 = FACE_OUTER_BOUND ( 'NONE', #29, .T. ) ;
#57 = DIRECTION ( 'NONE',  ( 3.491481338843133355E-15, -0.0000000000000000000, 1.000000000000000000 ) ) ;
#58 = EDGE_CURVE ( 'NONE', #70, #70, #174, .T. ) ;
#59 = EDGE_LOOP ( 'NONE', ( #236 ) ) ;
#60 = CIRCLE ( 'NONE', #242, 2.000000000000000000 ) ;
#61 = DIRECTION ( 'NONE',  ( 0.0000000000000000000, 0.0000000000000000000, 1.000000000000000000 ) ) ;
#62 = PERSON_AND_ORGANIZATION ( #188, #93 ) ;
#63 = ORIENTED_EDGE ( 'NONE', *, *, #212, .T. ) ;
#64 = APPROVAL_ROLE ( '' ) ;
#65 = CARTESIAN_POINT ( 'NONE',  ( 2.667806066754019931E-14, 0.0000000000000000000, 7.640900259366616432 ) ) ;
#66 = PERSON_AND_ORGANIZATION ( #188, #93 ) ;
#67 = CARTESIAN_POINT ( 'NONE',  ( 1.326762908760390423E-13, 0.0000000000000000000, 38.00000000000000000 ) ) ;
#68 = FACE_OUTER_BOUND ( 'NONE', #204, .T. ) ;
#69 = AXIS2_PLACEMENT_3D ( 'NONE', #124, #32, #104 ) ;
#70 = VERTEX_POINT ( 'NONE', #18 ) ;
#71 = CARTESIAN_POINT ( 'NONE',  ( 3.134086640985646425E-15, 0.0000000000000000000, 0.8976380902050284938 ) ) ;
#72 = ADVANCED_BREP_SHAPE_REPRESENTATION ( '334853', ( #170, #14, #31 ), #163 ) ;
#73 =( NAMED_UNIT ( * ) PLANE_ANGLE_UNIT ( ) SI_UNIT ( $, .RADIAN. ) );
#74 = CC_DESIGN_APPROVAL ( #24, ( #25 ) ) ;
#75 = DIRECTION ( 'NONE',  ( 3.491481338843133355E-15, -0.0000000000000000000, 1.000000000000000000 ) ) ;
#76 = PERSON_AND_ORGANIZATION ( #188, #93 ) ;
#77 = AXIS2_PLACEMENT_3D ( 'NONE', #71, #57, #168 ) ;
#78 = CALENDAR_DATE ( 2021, 9, 11 ) ;
#79 = PERSON_AND_ORGANIZATION ( #188, #93 ) ;
#80 = ADVANCED_FACE ( 'NONE', ( #233 ), #43, .T. ) ;
#81 = EDGE_LOOP ( 'NONE', ( #130 ) ) ;
#82 = CALENDAR_DATE ( 2021, 9, 11 ) ;
#83 = FACE_OUTER_BOUND ( 'NONE', #59, .T. ) ;
#84 = AXIS2_PLACEMENT_3D ( 'NONE', #237, #109, #239 ) ;
#85 = COORDINATED_UNIVERSAL_TIME_OFFSET ( 1, 0, .AHEAD. ) ;
#86 = ORIENTED_EDGE ( 'NONE', *, *, #212, .F. ) ;
#87 = DIRECTION ( 'NONE',  ( 1.000000000000000000, 0.0000000000000000000, -4.336808689942017736E-15 ) ) ;
#88 = ADVANCED_FACE ( 'NONE', ( #118 ), #141, .T. ) ;
#89 = ORIENTED_EDGE ( 'NONE', *, *, #206, .T. ) ;
#90 = VERTEX_POINT ( 'NONE', #150 ) ;
#91 = VERTEX_POINT ( 'NONE', #226 ) ;
#92 = DIRECTION ( 'NONE',  ( 1.000000000000000000, 0.0000000000000000000, -3.469446951953614189E-15 ) ) ;
#93 = ORGANIZATION ( 'UNSPECIFIED', 'UNSPECIFIED', '' ) ;
#94 = PRODUCT_RELATED_PRODUCT_CATEGORY ( 'detail', '', ( #208 ) ) ;
#95 = CLOSED_SHELL ( 'NONE', ( #34, #238, #80, #108, #172, #41 ) ) ;
#96 = CIRCLE ( 'NONE', #183, 1.600000000000000089 ) ;
#97 = CALENDAR_DATE ( 2021, 9, 11 ) ;
#98 = ORIENTED_EDGE ( 'NONE', *, *, #180, .F. ) ;
#99 = DIRECTION ( 'NONE',  ( 1.000000000000000000, 0.0000000000000000000, 0.0000000000000000000 ) ) ;
#100 = EDGE_LOOP ( 'NONE', ( #105 ) ) ;
#101 = APPROVAL_DATE_TIME ( #9, #131 ) ;
#102 = ORIENTED_EDGE ( 'NONE', *, *, #164, .F. ) ;
#103 = AXIS2_PLACEMENT_3D ( 'NONE', #148, #75, #106 ) ;
#104 = DIRECTION ( 'NONE',  ( -1.000000000000000000, 0.0000000000000000000, 3.491481338843133355E-15 ) ) ;
#105 = ORIENTED_EDGE ( 'NONE', *, *, #164, .T. ) ;
#106 = DIRECTION ( 'NONE',  ( 1.000000000000000000, 0.0000000000000000000, -3.491481338843133355E-15 ) ) ;
#107 = AXIS2_PLACEMENT_3D ( 'NONE', #65, #161, #199 ) ;
#108 = ADVANCED_FACE ( 'NONE', ( #201, #30 ), #38, .F. ) ;
#109 = DIRECTION ( 'NONE',  ( 3.491481338843133355E-15, -0.0000000000000000000, 1.000000000000000000 ) ) ;
#110 = DIRECTION ( 'NONE',  ( 1.000000000000000000, 0.0000000000000000000, -3.491481338843133355E-15 ) ) ;
#111 = DIRECTION ( 'NONE',  ( 3.491481338843133355E-15, -0.0000000000000000000, 1.000000000000000000 ) ) ;
#112 = CIRCLE ( 'NONE', #84, 0.1250000000000001110 ) ;
#113 = AXIS2_PLACEMENT_3D ( 'NONE', #143, #33, #220 ) ;
#114 = CALENDAR_DATE ( 2021, 9, 11 ) ;
#115 =( NAMED_UNIT ( * ) SI_UNIT ( $, .STERADIAN. ) SOLID_ANGLE_UNIT ( ) );
#116 = MECHANICAL_CONTEXT ( 'NONE', #122, 'mechanical' ) ;
#117 = APPROVAL ( #7, 'UNSPECIFIED' ) ;
#118 = FACE_OUTER_BOUND ( 'NONE', #8, .T. ) ;
#119 = DATE_TIME_ROLE ( 'classification_date' ) ;
#120 = DIRECTION ( 'NONE',  ( 1.000000000000000000, 0.0000000000000000000, -3.469446951953611033E-15 ) ) ;
#121 = APPROVAL_ROLE ( '' ) ;
#122 = APPLICATION_CONTEXT ( 'configuration controlled 3d designs of mechanical parts and assemblies' ) ;
#123 = DIRECTION ( 'NONE',  ( -1.000000000000000000, 0.0000000000000000000, 3.491481338843133355E-15 ) ) ;
#124 = CARTESIAN_POINT ( 'NONE',  ( 1.326762908760390438E-15, -5.149960319306142980E-17, 0.3799999999999998934 ) ) ;
#125 = APPROVAL_PERSON_ORGANIZATION ( #62, #131, #64 ) ;
#126 = ORIENTED_EDGE ( 'NONE', *, *, #21, .T. ) ;
#127 = APPROVAL_PERSON_ORGANIZATION ( #198, #117, #121 ) ;
#128 = VERTEX_POINT ( 'NONE', #35 ) ;
#129 = CARTESIAN_POINT ( 'NONE',  ( 1.326762908760390423E-13, 0.0000000000000000000, 38.00000000000000000 ) ) ;
#130 = ORIENTED_EDGE ( 'NONE', *, *, #151, .F. ) ;
#131 = APPROVAL ( #173, 'UNSPECIFIED' ) ;
#132 = CARTESIAN_POINT ( 'NONE',  ( 0.1250000000000014433, 0.0000000000000000000, 0.3799999999999992273 ) ) ;
#133 = CYLINDRICAL_SURFACE ( 'NONE', #136, 0.1250000000000001110 ) ;
#134 = ADVANCED_FACE ( 'NONE', ( #68 ), #50, .F. ) ;
#135 = COORDINATED_UNIVERSAL_TIME_OFFSET ( 1, 0, .AHEAD. ) ;
#136 = AXIS2_PLACEMENT_3D ( 'NONE', #190, #111, #110 ) ;
#137 = PERSON_AND_ORGANIZATION_ROLE ( 'design_owner' ) ;
#138 = CARTESIAN_POINT ( 'NONE',  ( 1.326762908760389452E-15, 0.0000000000000000000, 0.3799999999999996159 ) ) ;
#139 = DATE_AND_TIME ( #97, #149 ) ;
#140 = DIRECTION ( 'NONE',  ( -1.000000000000000000, 0.0000000000000000000, 3.491481338843133355E-15 ) ) ;
#141 = PLANE ( 'NONE',  #52 ) ;
#142 = EDGE_LOOP ( 'NONE', ( #184 ) ) ;
#143 = CARTESIAN_POINT ( 'NONE',  ( 1.326762908760390438E-15, 0.0000000000000000000, 0.3799999999999998934 ) ) ;
#144 = AXIS2_PLACEMENT_3D ( 'NONE', #181, #159, #140 ) ;
#145 = EDGE_LOOP ( 'NONE', ( #86 ) ) ;
#146 = LOCAL_TIME ( 7, 47, 3.000000000000000000, #228 ) ;
#147 = FACE_OUTER_BOUND ( 'NONE', #202, .T. ) ;
#148 = CARTESIAN_POINT ( 'NONE',  ( -9.831781012932406109E-37, 0.0000000000000000000, -2.815934000148506281E-22 ) ) ;
#149 = LOCAL_TIME ( 7, 47, 3.000000000000000000, #85 ) ;
#150 = CARTESIAN_POINT ( 'NONE',  ( 1.600000000000132871, 0.0000000000000000000, 37.99999999999999289 ) ) ;
#151 = EDGE_CURVE ( 'NONE', #90, #90, #96, .T. ) ;
#152 = EDGE_LOOP ( 'NONE', ( #102 ) ) ;
#153 = AXIS2_PLACEMENT_3D ( 'NONE', #222, #189, #243 ) ;
#154 = PRODUCT_DEFINITION ( 'UNKNOWN', '', #25, #13 ) ;
#155 = APPLICATION_PROTOCOL_DEFINITION ( 'international standard', 'config_control_design', 1994, #39 ) ;
#156 = ORIENTED_EDGE ( 'NONE', *, *, #21, .F. ) ;
#157 = APPROVAL_DATE_TIME ( #194, #117 ) ;
#158 = AXIS2_PLACEMENT_3D ( 'NONE', #67, #235, #53 ) ;
#159 = DIRECTION ( 'NONE',  ( -3.491481338843133355E-15, 0.0000000000000000000, -1.000000000000000000 ) ) ;
#160 = PERSON_AND_ORGANIZATION ( #188, #93 ) ;
#161 = DIRECTION ( 'NONE',  ( 3.491481338843133355E-15, -0.0000000000000000000, 1.000000000000000000 ) ) ;
#162 = SECURITY_CLASSIFICATION ( '', '', #216 ) ;
#163 =( GEOMETRIC_REPRESENTATION_CONTEXT ( 3 ) GLOBAL_UNCERTAINTY_ASSIGNED_CONTEXT ( ( #27 ) ) GLOBAL_UNIT_ASSIGNED_CONTEXT ( ( #165, #73, #115 ) ) REPRESENTATION_CONTEXT ( 'NONE', 'WORKASPACE' ) );
#164 = EDGE_CURVE ( 'NONE', #91, #91, #192, .T. ) ;
#165 =( LENGTH_UNIT ( ) NAMED_UNIT ( * ) SI_UNIT ( .MILLI., .METRE. ) );
#166 = EDGE_LOOP ( 'NONE', ( #217 ) ) ;
#167 = VERTEX_POINT ( 'NONE', #132 ) ;
#168 = DIRECTION ( 'NONE',  ( 1.000000000000000000, 0.0000000000000000000, -3.367987933494891755E-15 ) ) ;
#169 = CIRCLE ( 'NONE', #103, 0.1250000000000001110 ) ;
#170 = MANIFOLD_SOLID_BREP ( 'Corps-Déplacer/Copier1[1]', #95 ) ;
#171 = DATE_AND_TIME ( #114, #1 ) ;
#172 = ADVANCED_FACE ( 'NONE', ( #207, #36 ), #211, .T. ) ;
#173 = APPROVAL_STATUS ( 'not_yet_approved' ) ;
#174 = CIRCLE ( 'NONE', #107, 2.000000000000000000 ) ;
#175 = LOCAL_TIME ( 7, 47, 3.000000000000000000, #182 ) ;
#176 = PERSON_AND_ORGANIZATION_ROLE ( 'creator' ) ;
#177 = LOCAL_TIME ( 7, 47, 3.000000000000000000, #135 ) ;
#178 = DIRECTION ( 'NONE',  ( 3.491481338843133355E-15, -0.0000000000000000000, 1.000000000000000000 ) ) ;
#179 = APPLICATION_PROTOCOL_DEFINITION ( 'international standard', 'config_control_design', 1994, #122 ) ;
#180 = EDGE_CURVE ( 'NONE', #191, #191, #169, .T. ) ;
#181 = CARTESIAN_POINT ( 'NONE',  ( 1.326762908760390438E-15, -5.149960319306142980E-17, 0.3799999999999998934 ) ) ;
#182 = COORDINATED_UNIVERSAL_TIME_OFFSET ( 1, 0, .AHEAD. ) ;
#183 = AXIS2_PLACEMENT_3D ( 'NONE', #185, #12, #87 ) ;
#184 = ORIENTED_EDGE ( 'NONE', *, *, #58, .F. ) ;
#185 = CARTESIAN_POINT ( 'NONE',  ( 1.326762908760390423E-13, 0.0000000000000000000, 38.00000000000000000 ) ) ;
#186 = FACE_OUTER_BOUND ( 'NONE', #15, .T. ) ;
#187 = CC_DESIGN_DATE_AND_TIME_ASSIGNMENT ( #171, #119, ( #162 ) ) ;
#188 = PERSON ( 'UNSPECIFIED', 'UNSPECIFIED', 'UNSPECIFIED', ('UNSPECIFIED'), ('UNSPECIFIED'), ('UNSPECIFIED') ) ;
#189 = DIRECTION ( 'NONE',  ( 3.491481338843133355E-15, -0.0000000000000000000, 1.000000000000000000 ) ) ;
#190 = CARTESIAN_POINT ( 'NONE',  ( 0.0000000000000000000, 0.0000000000000000000, 0.0000000000000000000 ) ) ;
#191 = VERTEX_POINT ( 'NONE', #241 ) ;
#192 = CIRCLE ( 'NONE', #77, 0.1931483474218597118 ) ;
#193 = CC_DESIGN_PERSON_AND_ORGANIZATION_ASSIGNMENT ( #79, #137, ( #208 ) ) ;
#194 = DATE_AND_TIME ( #82, #177 ) ;
#195 = DATE_TIME_ROLE ( 'creation_date' ) ;
#196 = CLOSED_SHELL ( 'NONE', ( #88, #223, #134 ) ) ;
#197 = CARTESIAN_POINT ( 'NONE',  ( -4.915890506466203054E-37, 0.0000000000000000000, -1.407967000074253141E-22 ) ) ;
#198 = PERSON_AND_ORGANIZATION ( #188, #93 ) ;
#199 = DIRECTION ( 'NONE',  ( 1.000000000000000000, 0.0000000000000000000, -3.469446951953614189E-15 ) ) ;
#200 = CARTESIAN_POINT ( 'NONE',  ( 0.0000000000000000000, 0.0000000000000000000, 0.0000000000000000000 ) ) ;
#201 = FACE_OUTER_BOUND ( 'NONE', #11, .T. ) ;
#202 = EDGE_LOOP ( 'NONE', ( #230 ) ) ;
#203 = CC_DESIGN_PERSON_AND_ORGANIZATION_ASSIGNMENT ( #76, #234, ( #25 ) ) ;
#204 = EDGE_LOOP ( 'NONE', ( #63 ) ) ;
#205 = DIRECTION ( 'NONE',  ( -1.000000000000000000, 0.0000000000000000000, 4.336808689942017736E-15 ) ) ;
#206 = EDGE_CURVE ( 'NONE', #19, #19, #60, .T. ) ;
#207 = FACE_BOUND ( 'NONE', #100, .T. ) ;
#208 = PRODUCT ( '334853', '334853', '', ( #116 ) ) ;
#209 = DIRECTION ( 'NONE',  ( -3.491481338843133355E-15, 0.0000000000000000000, -1.000000000000000000 ) ) ;
#210 = AXIS2_PLACEMENT_3D ( 'NONE', #129, #209, #205 ) ;
#211 = CONICAL_SURFACE ( 'NONE', #153, 2.000000000000000000, 0.2617993877991428020 ) ;
#212 = EDGE_CURVE ( 'NONE', #167, #167, #112, .T. ) ;
#213 = PERSON_AND_ORGANIZATION ( #188, #93 ) ;
#214 = APPROVAL_STATUS ( 'not_yet_approved' ) ;
#215 = CARTESIAN_POINT ( 'NONE',  ( 0.0000000000000000000, 0.0000000000000000000, 0.0000000000000000000 ) ) ;
#216 = SECURITY_CLASSIFICATION_LEVEL ( 'unclassified' ) ;
#217 = ORIENTED_EDGE ( 'NONE', *, *, #151, .T. ) ;
#218 = PERSON_AND_ORGANIZATION_ROLE ( 'classification_officer' ) ;
#219 = CYLINDRICAL_SURFACE ( 'NONE', #22, 2.000000000000000000 ) ;
#220 = DIRECTION ( 'NONE',  ( 1.000000000000000000, 0.0000000000000000000, -3.491481338843133355E-15 ) ) ;
#221 = DIRECTION ( 'NONE',  ( 1.000000000000000000, 0.0000000000000000000, -3.491481338843133355E-15 ) ) ;
#222 = CARTESIAN_POINT ( 'NONE',  ( 2.667806066754019931E-14, 0.0000000000000000000, 7.640900259366616432 ) ) ;
#223 = ADVANCED_FACE ( 'NONE', ( #147, #16 ), #133, .T. ) ;
#224 = APPROVAL_PERSON_ORGANIZATION ( #160, #24, #42 ) ;
#225 = CARTESIAN_POINT ( 'NONE',  ( 1.312796983405018142E-13, 0.0000000000000000000, 37.60000000000000142 ) ) ;
#226 = CARTESIAN_POINT ( 'NONE',  ( 0.1931483474218628482, 0.0000000000000000000, 0.8976380902050278277 ) ) ;
#227 = CC_DESIGN_PERSON_AND_ORGANIZATION_ASSIGNMENT ( #66, #218, ( #162 ) ) ;
#228 = COORDINATED_UNIVERSAL_TIME_OFFSET ( 1, 0, .AHEAD. ) ;
#229 = PLANE ( 'NONE',  #144 ) ;
#230 = ORIENTED_EDGE ( 'NONE', *, *, #180, .T. ) ;
#231 = EDGE_LOOP ( 'NONE', ( #46 ) ) ;
#232 = SHAPE_DEFINITION_REPRESENTATION ( #51, #72 ) ;
#233 = FACE_OUTER_BOUND ( 'NONE', #166, .T. ) ;
#234 = PERSON_AND_ORGANIZATION_ROLE ( 'design_supplier' ) ;
#235 = DIRECTION ( 'NONE',  ( 3.491481338843133355E-15, -0.0000000000000000000, 1.000000000000000000 ) ) ;
#236 = ORIENTED_EDGE ( 'NONE', *, *, #206, .F. ) ;
#237 = CARTESIAN_POINT ( 'NONE',  ( 1.326762908760389452E-15, 0.0000000000000000000, 0.3799999999999996159 ) ) ;
#238 = ADVANCED_FACE ( 'NONE', ( #56, #55 ), #10, .T. ) ;
#239 = DIRECTION ( 'NONE',  ( 1.000000000000000000, 0.0000000000000000000, -3.469446951953611033E-15 ) ) ;
#240 = CC_DESIGN_PERSON_AND_ORGANIZATION_ASSIGNMENT ( #213, #28, ( #154 ) ) ;
#241 = CARTESIAN_POINT ( 'NONE',  ( 0.1250000000000001110, 0.0000000000000000000, -4.364354489487921385E-16 ) ) ;
#242 = AXIS2_PLACEMENT_3D ( 'NONE', #225, #54, #92 ) ;
#243 = DIRECTION ( 'NONE',  ( 1.000000000000000000, 0.0000000000000000000, -3.469446951953614189E-15 ) ) ;
ENDSEC;
END-ISO-10303-21;
