ISO-10303-21;
HEADER;
FILE_DESCRIPTION (( 'STEP AP203' ),
    '1' );
FILE_NAME ('334852.step',
    '2021-11-09T06:47:03',
    ( '' ),
    ( '' ),
    'SwSTEP 2.0',
    'SolidWorks 2019',
    '' );
FILE_SCHEMA (( 'CONFIG_CONTROL_DESIGN' ));
ENDSEC;

DATA;
#1 = CARTESIAN_POINT ( 'NONE',  ( -9.831781012932406109E-37, 0.0000000000000000000, -2.815934000148506281E-22 ) ) ;
#2 =( GEOMETRIC_REPRESENTATION_CONTEXT ( 3 ) GLOBAL_UNCERTAINTY_ASSIGNED_CONTEXT ( ( #29 ) ) GLOBAL_UNIT_ASSIGNED_CONTEXT ( ( #192, #87, #6 ) ) REPRESENTATION_CONTEXT ( 'NONE', 'WORKASPACE' ) );
#3 = EDGE_LOOP ( 'NONE', ( #147 ) ) ;
#4 = AXIS2_PLACEMENT_3D ( 'NONE', #196, #216, #69 ) ;
#5 = LOCAL_TIME ( 7, 47, 3.000000000000000000, #106 ) ;
#6 =( NAMED_UNIT ( * ) SI_UNIT ( $, .STERADIAN. ) SOLID_ANGLE_UNIT ( ) );
#7 = FACE_OUTER_BOUND ( 'NONE', #237, .T. ) ;
#8 = VERTEX_POINT ( 'NONE', #226 ) ;
#9 = CALENDAR_DATE ( 2021, 9, 11 ) ;
#10 = EDGE_CURVE ( 'NONE', #207, #207, #225, .T. ) ;
#11 = LOCAL_TIME ( 7, 47, 3.000000000000000000, #124 ) ;
#12 = CARTESIAN_POINT ( 'NONE',  ( 0.1000000000000008660, 0.0000000000000000000, 0.2999999999999992117 ) ) ;
#13 = DATE_AND_TIME ( #200, #5 ) ;
#14 = CALENDAR_DATE ( 2021, 9, 11 ) ;
#15 = ORIENTED_EDGE ( 'NONE', *, *, #76, .T. ) ;
#16 = EDGE_CURVE ( 'NONE', #8, #8, #203, .T. ) ;
#17 = EDGE_LOOP ( 'NONE', ( #15 ) ) ;
#18 = LOCAL_TIME ( 7, 47, 3.000000000000000000, #38 ) ;
#19 = DIRECTION ( 'NONE',  ( -1.000000000000000000, 0.0000000000000000000, 3.491481338843133355E-15 ) ) ;
#20 = DIRECTION ( 'NONE',  ( 1.000000000000000000, 0.0000000000000000000, -3.469446951953614189E-15 ) ) ;
#21 = FACE_OUTER_BOUND ( 'NONE', #135, .T. ) ;
#22 = AXIS2_PLACEMENT_3D ( 'NONE', #107, #41, #242 ) ;
#23 = CIRCLE ( 'NONE', #102, 0.09999999999999982514 ) ;
#24 = ADVANCED_FACE ( 'NONE', ( #163 ), #93, .T. ) ;
#25 = APPLICATION_CONTEXT ( 'configuration controlled 3d designs of mechanical parts and assemblies' ) ;
#26 = AXIS2_PLACEMENT_3D ( 'NONE', #212, #115, #193 ) ;
#27 = DIRECTION ( 'NONE',  ( -3.491481338843133355E-15, 0.0000000000000000000, -1.000000000000000000 ) ) ;
#28 = AXIS2_PLACEMENT_3D ( 'NONE', #209, #100, #47 ) ;
#29 = UNCERTAINTY_MEASURE_WITH_UNIT (LENGTH_MEASURE( 1.000000000000000082E-05 ), #192, 'distance_accuracy_value', 'NONE');
#30 = FACE_OUTER_BOUND ( 'NONE', #74, .T. ) ;
#31 = EDGE_CURVE ( 'NONE', #137, #137, #112, .T. ) ;
#32 = APPROVAL_ROLE ( '' ) ;
#33 = DIRECTION ( 'NONE',  ( 3.491481338843133355E-15, -0.0000000000000000000, 1.000000000000000000 ) ) ;
#34 = PERSON_AND_ORGANIZATION ( #155, #86 ) ;
#35 = EDGE_LOOP ( 'NONE', ( #68 ) ) ;
#36 = AXIS2_PLACEMENT_3D ( 'NONE', #58, #165, #129 ) ;
#37 = PERSON_AND_ORGANIZATION ( #155, #86 ) ;
#38 = COORDINATED_UNIVERSAL_TIME_OFFSET ( 1, 0, .AHEAD. ) ;
#39 = PLANE ( 'NONE',  #205 ) ;
#40 = APPROVAL_PERSON_ORGANIZATION ( #37, #206, #66 ) ;
#41 = DIRECTION ( 'NONE',  ( 3.491481338843133355E-15, -0.0000000000000000000, 1.000000000000000000 ) ) ;
#42 = ADVANCED_FACE ( 'NONE', ( #219, #55 ), #89, .T. ) ;
#43 = DIRECTION ( 'NONE',  ( -3.491481338843133355E-15, 0.0000000000000000000, -1.000000000000000000 ) ) ;
#44 = ADVANCED_FACE ( 'NONE', ( #184 ), #39, .T. ) ;
#45 = DIRECTION ( 'NONE',  ( 3.491481338843133355E-15, -0.0000000000000000000, 1.000000000000000000 ) ) ;
#46 = CLOSED_SHELL ( 'NONE', ( #44, #42, #121 ) ) ;
#47 = DIRECTION ( 'NONE',  ( -1.000000000000000000, 0.0000000000000000000, 3.491481338843133355E-15 ) ) ;
#48 = CC_DESIGN_APPROVAL ( #206, ( #152 ) ) ;
#49 = CYLINDRICAL_SURFACE ( 'NONE', #62, 2.000000000000000000 ) ;
#50 = PERSON_AND_ORGANIZATION_ROLE ( 'creator' ) ;
#51 = DIRECTION ( 'NONE',  ( 1.000000000000000000, 0.0000000000000000000, -3.469446951953614189E-15 ) ) ;
#52 = PERSON_AND_ORGANIZATION_ROLE ( 'creator' ) ;
#53 = AXIS2_PLACEMENT_3D ( 'NONE', #1, #204, #111 ) ;
#54 = APPROVAL_STATUS ( 'not_yet_approved' ) ;
#55 = FACE_OUTER_BOUND ( 'NONE', #148, .T. ) ;
#56 = DATE_AND_TIME ( #73, #180 ) ;
#57 = DIRECTION ( 'NONE',  ( 1.000000000000000000, 0.0000000000000000000, -3.491481338843133355E-15 ) ) ;
#58 = CARTESIAN_POINT ( 'NONE',  ( 2.854768133878195204E-15, 0.0000000000000000000, 0.8176380902050284227 ) ) ;
#59 = CC_DESIGN_DATE_AND_TIME_ASSIGNMENT ( #139, #88, ( #173 ) ) ;
#60 = AXIS2_PLACEMENT_3D ( 'NONE', #154, #33, #118 ) ;
#61 = DIRECTION ( 'NONE',  ( 1.000000000000000000, 0.0000000000000000000, -3.252606517456518824E-15 ) ) ;
#62 = AXIS2_PLACEMENT_3D ( 'NONE', #195, #83, #190 ) ;
#63 = VERTEX_POINT ( 'NONE', #233 ) ;
#64 = APPROVAL ( #54, 'UNSPECIFIED' ) ;
#65 = AXIS2_PLACEMENT_3D ( 'NONE', #202, #145, #20 ) ;
#66 = APPROVAL_ROLE ( '' ) ;
#67 = SECURITY_CLASSIFICATION_LEVEL ( 'unclassified' ) ;
#68 = ORIENTED_EDGE ( 'NONE', *, *, #82, .T. ) ;
#69 = DIRECTION ( 'NONE',  ( 1.000000000000000000, 0.0000000000000000000, 0.0000000000000000000 ) ) ;
#70 = EDGE_LOOP ( 'NONE', ( #94 ) ) ;
#71 = LOCAL_TIME ( 7, 47, 3.000000000000000000, #231 ) ;
#72 = MANIFOLD_SOLID_BREP ( 'Corps-Déplacer/Copier1[2]', #46 ) ;
#73 = CALENDAR_DATE ( 2021, 9, 11 ) ;
#74 = EDGE_LOOP ( 'NONE', ( #170 ) ) ;
#75 = ORIENTED_EDGE ( 'NONE', *, *, #169, .F. ) ;
#76 = EDGE_CURVE ( 'NONE', #85, #85, #23, .T. ) ;
#77 = ORIENTED_EDGE ( 'NONE', *, *, #10, .F. ) ;
#78 = CIRCLE ( 'NONE', #187, 2.000000000000000000 ) ;
#79 = EDGE_LOOP ( 'NONE', ( #201 ) ) ;
#80 = AXIS2_PLACEMENT_3D ( 'NONE', #98, #27, #120 ) ;
#81 = PLANE ( 'NONE',  #28 ) ;
#82 = EDGE_CURVE ( 'NONE', #63, #63, #168, .T. ) ;
#83 = DIRECTION ( 'NONE',  ( 3.491481338843133355E-15, -0.0000000000000000000, 1.000000000000000000 ) ) ;
#84 = APPLICATION_PROTOCOL_DEFINITION ( 'international standard', 'config_control_design', 1994, #108 ) ;
#85 = VERTEX_POINT ( 'NONE', #12 ) ;
#86 = ORGANIZATION ( 'UNSPECIFIED', 'UNSPECIFIED', '' ) ;
#87 =( NAMED_UNIT ( * ) PLANE_ANGLE_UNIT ( ) SI_UNIT ( $, .RADIAN. ) );
#88 = DATE_TIME_ROLE ( 'classification_date' ) ;
#89 = CYLINDRICAL_SURFACE ( 'NONE', #95, 0.09999999999999982514 ) ;
#90 = ORIENTED_EDGE ( 'NONE', *, *, #82, .F. ) ;
#91 = TOROIDAL_SURFACE ( 'NONE', #132, 2.100000000000000089, 2.000000000000000000 ) ;
#92 = ORIENTED_EDGE ( 'NONE', *, *, #176, .T. ) ;
#93 = PLANE ( 'NONE',  #117 ) ;
#94 = ORIENTED_EDGE ( 'NONE', *, *, #169, .T. ) ;
#95 = AXIS2_PLACEMENT_3D ( 'NONE', #241, #131, #57 ) ;
#96 = ADVANCED_FACE ( 'NONE', ( #186, #21 ), #232, .T. ) ;
#97 = DIRECTION ( 'NONE',  ( 3.491481338843133355E-15, -0.0000000000000000000, 1.000000000000000000 ) ) ;
#98 = CARTESIAN_POINT ( 'NONE',  ( 1.326762908760390423E-13, 0.0000000000000000000, 38.00000000000000000 ) ) ;
#99 = APPROVAL_ROLE ( '' ) ;
#100 = DIRECTION ( 'NONE',  ( -3.491481338843133355E-15, 0.0000000000000000000, -1.000000000000000000 ) ) ;
#101 = APPROVAL_STATUS ( 'not_yet_approved' ) ;
#102 = AXIS2_PLACEMENT_3D ( 'NONE', #109, #223, #61 ) ;
#103 = DATE_AND_TIME ( #198, #11 ) ;
#104 = PLANE ( 'NONE',  #26 ) ;
#105 = CC_DESIGN_PERSON_AND_ORGANIZATION_ASSIGNMENT ( #143, #181, ( #173 ) ) ;
#106 = COORDINATED_UNIVERSAL_TIME_OFFSET ( 1, 0, .AHEAD. ) ;
#107 = CARTESIAN_POINT ( 'NONE',  ( 1.326762908760390423E-13, 0.0000000000000000000, 38.00000000000000000 ) ) ;
#108 = APPLICATION_CONTEXT ( 'configuration controlled 3d designs of mechanical parts and assemblies' ) ;
#109 = CARTESIAN_POINT ( 'NONE',  ( 1.047444401652938429E-15, 0.0000000000000000000, 0.2999999999999995448 ) ) ;
#110 = EDGE_LOOP ( 'NONE', ( #75 ) ) ;
#111 = DIRECTION ( 'NONE',  ( 1.000000000000000000, 0.0000000000000000000, -3.491481338843133355E-15 ) ) ;
#112 = CIRCLE ( 'NONE', #22, 1.600000000000000089 ) ;
#113 = DESIGN_CONTEXT ( 'detailed design', #25, 'design' ) ;
#114 = AXIS2_PLACEMENT_3D ( 'NONE', #167, #162, #126 ) ;
#115 = DIRECTION ( 'NONE',  ( -3.491481338843133355E-15, 0.0000000000000000000, -1.000000000000000000 ) ) ;
#116 = CARTESIAN_POINT ( 'NONE',  ( 0.1000000000000008660, 0.0000000000000000000, 0.2999999999999992117 ) ) ;
#117 = AXIS2_PLACEMENT_3D ( 'NONE', #166, #220, #149 ) ;
#118 = DIRECTION ( 'NONE',  ( 1.000000000000000000, 0.0000000000000000000, -3.252606517456518824E-15 ) ) ;
#119 = PERSON_AND_ORGANIZATION ( #155, #86 ) ;
#120 = DIRECTION ( 'NONE',  ( -1.000000000000000000, 0.0000000000000000000, 4.336808689942017736E-15 ) ) ;
#121 = ADVANCED_FACE ( 'NONE', ( #199 ), #104, .F. ) ;
#122 = COORDINATED_UNIVERSAL_TIME_OFFSET ( 1, 0, .AHEAD. ) ;
#123 = MECHANICAL_CONTEXT ( 'NONE', #108, 'mechanical' ) ;
#124 = COORDINATED_UNIVERSAL_TIME_OFFSET ( 1, 0, .AHEAD. ) ;
#125 = ORIENTED_EDGE ( 'NONE', *, *, #10, .T. ) ;
#126 = DIRECTION ( 'NONE',  ( 1.000000000000000000, 0.0000000000000000000, -3.469446951953614189E-15 ) ) ;
#127 = ADVANCED_FACE ( 'NONE', ( #213, #7 ), #49, .T. ) ;
#128 = CARTESIAN_POINT ( 'NONE',  ( -4.915890506466203054E-37, 0.0000000000000000000, -1.407967000074253141E-22 ) ) ;
#129 = DIRECTION ( 'NONE',  ( 1.000000000000000000, 0.0000000000000000000, -3.223945370588145407E-15 ) ) ;
#130 = CIRCLE ( 'NONE', #60, 0.09999999999999982514 ) ;
#131 = DIRECTION ( 'NONE',  ( 3.491481338843133355E-15, -0.0000000000000000000, 1.000000000000000000 ) ) ;
#132 = AXIS2_PLACEMENT_3D ( 'NONE', #177, #97, #229 ) ;
#133 = PRODUCT_RELATED_PRODUCT_CATEGORY ( 'detail', '', ( #171 ) ) ;
#134 = PRODUCT_DEFINITION_SHAPE ( 'NONE', 'NONE',  #240 ) ;
#135 = EDGE_LOOP ( 'NONE', ( #77 ) ) ;
#136 = VERTEX_POINT ( 'NONE', #142 ) ;
#137 = VERTEX_POINT ( 'NONE', #153 ) ;
#138 = FACE_OUTER_BOUND ( 'NONE', #70, .T. ) ;
#139 = DATE_AND_TIME ( #14, #71 ) ;
#140 = CC_DESIGN_PERSON_AND_ORGANIZATION_ASSIGNMENT ( #236, #52, ( #152 ) ) ;
#141 = APPROVAL_STATUS ( 'not_yet_approved' ) ;
#142 = CARTESIAN_POINT ( 'NONE',  ( 2.000000000000131450, 0.0000000000000000000, 37.59999999999999432 ) ) ;
#143 = PERSON_AND_ORGANIZATION ( #155, #86 ) ;
#144 = PERSON_AND_ORGANIZATION_ROLE ( 'design_supplier' ) ;
#145 = DIRECTION ( 'NONE',  ( 3.491481338843133355E-15, -0.0000000000000000000, 1.000000000000000000 ) ) ;
#146 = CC_DESIGN_APPROVAL ( #64, ( #173 ) ) ;
#147 = ORIENTED_EDGE ( 'NONE', *, *, #16, .T. ) ;
#148 = EDGE_LOOP ( 'NONE', ( #161 ) ) ;
#149 = DIRECTION ( 'NONE',  ( 1.000000000000000000, 0.0000000000000000000, -3.491481338843133355E-15 ) ) ;
#150 = CC_DESIGN_SECURITY_CLASSIFICATION ( #173, ( #152 ) ) ;
#151 = CC_DESIGN_DATE_AND_TIME_ASSIGNMENT ( #234, #214, ( #240 ) ) ;
#152 = PRODUCT_DEFINITION_FORMATION_WITH_SPECIFIED_SOURCE ( 'ANY', '', #171, .NOT_KNOWN. ) ;
#153 = CARTESIAN_POINT ( 'NONE',  ( 1.600000000000132871, 0.0000000000000000000, 37.99999999999999289 ) ) ;
#154 = CARTESIAN_POINT ( 'NONE',  ( 1.047444401652938429E-15, 0.0000000000000000000, 0.2999999999999995448 ) ) ;
#155 = PERSON ( 'UNSPECIFIED', 'UNSPECIFIED', 'UNSPECIFIED', ('UNSPECIFIED'), ('UNSPECIFIED'), ('UNSPECIFIED') ) ;
#156 = CC_DESIGN_PERSON_AND_ORGANIZATION_ASSIGNMENT ( #119, #144, ( #152 ) ) ;
#157 = FACE_BOUND ( 'NONE', #217, .T. ) ;
#158 = PERSON_AND_ORGANIZATION_ROLE ( 'design_owner' ) ;
#159 = FACE_OUTER_BOUND ( 'NONE', #172, .T. ) ;
#160 = APPROVAL_DATE_TIME ( #56, #208 ) ;
#161 = ORIENTED_EDGE ( 'NONE', *, *, #76, .F. ) ;
#162 = DIRECTION ( 'NONE',  ( 3.491481338843133355E-15, -0.0000000000000000000, 1.000000000000000000 ) ) ;
#163 = FACE_OUTER_BOUND ( 'NONE', #79, .T. ) ;
#164 = CC_DESIGN_APPROVAL ( #208, ( #240 ) ) ;
#165 = DIRECTION ( 'NONE',  ( 3.491481338843133355E-15, -0.0000000000000000000, 1.000000000000000000 ) ) ;
#166 = CARTESIAN_POINT ( 'NONE',  ( 1.326762908760390423E-13, 0.0000000000000000000, 38.00000000000000000 ) ) ;
#167 = CARTESIAN_POINT ( 'NONE',  ( 2.672450180418878747E-14, 0.0000000000000000000, 7.654201529555841432 ) ) ;
#168 = CIRCLE ( 'NONE', #53, 0.09999999999999982514 ) ;
#169 = EDGE_CURVE ( 'NONE', #136, #136, #78, .T. ) ;
#170 = ORIENTED_EDGE ( 'NONE', *, *, #16, .F. ) ;
#171 = PRODUCT ( '334852', '334852', '', ( #123 ) ) ;
#172 = EDGE_LOOP ( 'NONE', ( #92 ) ) ;
#173 = SECURITY_CLASSIFICATION ( '', '', #67 ) ;
#174 = CLOSED_SHELL ( 'NONE', ( #127, #221, #24, #188, #96, #189 ) ) ;
#175 = FACE_OUTER_BOUND ( 'NONE', #243, .T. ) ;
#176 = EDGE_CURVE ( 'NONE', #215, #215, #130, .T. ) ;
#177 = CARTESIAN_POINT ( 'NONE',  ( 1.047444401652939218E-15, 0.0000000000000000000, 0.2999999999999998224 ) ) ;
#178 = CARTESIAN_POINT ( 'NONE',  ( 2.000000000000027089, 0.0000000000000000000, 7.654201529555834327 ) ) ;
#179 = PERSON_AND_ORGANIZATION ( #155, #86 ) ;
#180 = LOCAL_TIME ( 7, 47, 3.000000000000000000, #122 ) ;
#181 = PERSON_AND_ORGANIZATION_ROLE ( 'classification_officer' ) ;
#182 = SHAPE_DEFINITION_REPRESENTATION ( #134, #210 ) ;
#183 = ORIENTED_EDGE ( 'NONE', *, *, #31, .F. ) ;
#184 = FACE_OUTER_BOUND ( 'NONE', #185, .T. ) ;
#185 = EDGE_LOOP ( 'NONE', ( #90 ) ) ;
#186 = FACE_BOUND ( 'NONE', #3, .T. ) ;
#187 = AXIS2_PLACEMENT_3D ( 'NONE', #230, #45, #51 ) ;
#188 = ADVANCED_FACE ( 'NONE', ( #159, #30 ), #91, .F. ) ;
#189 = ADVANCED_FACE ( 'NONE', ( #175 ), #81, .T. ) ;
#190 = DIRECTION ( 'NONE',  ( 1.000000000000000000, 0.0000000000000000000, -3.491481338843133355E-15 ) ) ;
#191 = CC_DESIGN_PERSON_AND_ORGANIZATION_ASSIGNMENT ( #179, #50, ( #240 ) ) ;
#192 =( LENGTH_UNIT ( ) NAMED_UNIT ( * ) SI_UNIT ( .MILLI., .METRE. ) );
#193 = DIRECTION ( 'NONE',  ( -1.000000000000000000, 0.0000000000000000000, 3.491481338843133355E-15 ) ) ;
#194 = APPROVAL_DATE_TIME ( #103, #64 ) ;
#195 = CARTESIAN_POINT ( 'NONE',  ( 0.0000000000000000000, 0.0000000000000000000, 0.0000000000000000000 ) ) ;
#196 = CARTESIAN_POINT ( 'NONE',  ( 0.0000000000000000000, 0.0000000000000000000, 0.0000000000000000000 ) ) ;
#197 = PERSON_AND_ORGANIZATION ( #155, #86 ) ;
#198 = CALENDAR_DATE ( 2021, 9, 11 ) ;
#199 = FACE_OUTER_BOUND ( 'NONE', #17, .T. ) ;
#200 = CALENDAR_DATE ( 2021, 9, 11 ) ;
#201 = ORIENTED_EDGE ( 'NONE', *, *, #31, .T. ) ;
#202 = CARTESIAN_POINT ( 'NONE',  ( 2.672450180418878747E-14, 0.0000000000000000000, 7.654201529555841432 ) ) ;
#203 = CIRCLE ( 'NONE', #36, 0.1681483474218598562 ) ;
#204 = DIRECTION ( 'NONE',  ( 3.491481338843133355E-15, -0.0000000000000000000, 1.000000000000000000 ) ) ;
#205 = AXIS2_PLACEMENT_3D ( 'NONE', #128, #43, #19 ) ;
#206 = APPROVAL ( #141, 'UNSPECIFIED' ) ;
#207 = VERTEX_POINT ( 'NONE', #178 ) ;
#208 = APPROVAL ( #101, 'UNSPECIFIED' ) ;
#209 = CARTESIAN_POINT ( 'NONE',  ( 1.047444401652939218E-15, -4.065758146820637313E-17, 0.2999999999999998224 ) ) ;
#210 = ADVANCED_BREP_SHAPE_REPRESENTATION ( '334852', ( #227, #72, #4 ), #2 ) ;
#211 = CONICAL_SURFACE ( 'NONE', #80, 1.600000000000000089, 0.7853981633974512766 ) ;
#212 = CARTESIAN_POINT ( 'NONE',  ( 1.047444401652939218E-15, -4.065758146820637313E-17, 0.2999999999999998224 ) ) ;
#213 = FACE_OUTER_BOUND ( 'NONE', #110, .T. ) ;
#214 = DATE_TIME_ROLE ( 'creation_date' ) ;
#215 = VERTEX_POINT ( 'NONE', #116 ) ;
#216 = DIRECTION ( 'NONE',  ( 0.0000000000000000000, 0.0000000000000000000, 1.000000000000000000 ) ) ;
#217 = EDGE_LOOP ( 'NONE', ( #183 ) ) ;
#218 = PERSON_AND_ORGANIZATION ( #155, #86 ) ;
#219 = FACE_OUTER_BOUND ( 'NONE', #35, .T. ) ;
#220 = DIRECTION ( 'NONE',  ( 3.491481338843133355E-15, -0.0000000000000000000, 1.000000000000000000 ) ) ;
#221 = ADVANCED_FACE ( 'NONE', ( #138, #157 ), #211, .T. ) ;
#222 = ORIENTED_EDGE ( 'NONE', *, *, #176, .F. ) ;
#223 = DIRECTION ( 'NONE',  ( 3.491481338843133355E-15, -0.0000000000000000000, 1.000000000000000000 ) ) ;
#224 = APPROVAL_PERSON_ORGANIZATION ( #218, #64, #99 ) ;
#225 = CIRCLE ( 'NONE', #65, 2.000000000000000000 ) ;
#226 = CARTESIAN_POINT ( 'NONE',  ( 0.1681483474218626872, 0.0000000000000000000, 0.8176380902050278676 ) ) ;
#227 = MANIFOLD_SOLID_BREP ( 'Corps-Déplacer/Copier1[1]', #174 ) ;
#228 = CC_DESIGN_PERSON_AND_ORGANIZATION_ASSIGNMENT ( #197, #158, ( #171 ) ) ;
#229 = DIRECTION ( 'NONE',  ( 1.000000000000000000, 0.0000000000000000000, -3.491481338843132961E-15 ) ) ;
#230 = CARTESIAN_POINT ( 'NONE',  ( 1.312796983405018142E-13, 0.0000000000000000000, 37.60000000000000142 ) ) ;
#231 = COORDINATED_UNIVERSAL_TIME_OFFSET ( 1, 0, .AHEAD. ) ;
#232 = CONICAL_SURFACE ( 'NONE', #114, 2.000000000000000000, 0.2617993877991427465 ) ;
#233 = CARTESIAN_POINT ( 'NONE',  ( 0.09999999999999982514, 0.0000000000000000000, -3.491484154777127693E-16 ) ) ;
#234 = DATE_AND_TIME ( #9, #18 ) ;
#235 = APPROVAL_DATE_TIME ( #13, #206 ) ;
#236 = PERSON_AND_ORGANIZATION ( #155, #86 ) ;
#237 = EDGE_LOOP ( 'NONE', ( #125 ) ) ;
#238 = APPLICATION_PROTOCOL_DEFINITION ( 'international standard', 'config_control_design', 1994, #25 ) ;
#239 = APPROVAL_PERSON_ORGANIZATION ( #34, #208, #32 ) ;
#240 = PRODUCT_DEFINITION ( 'UNKNOWN', '', #152, #113 ) ;
#241 = CARTESIAN_POINT ( 'NONE',  ( 0.0000000000000000000, 0.0000000000000000000, 0.0000000000000000000 ) ) ;
#242 = DIRECTION ( 'NONE',  ( 1.000000000000000000, 0.0000000000000000000, -4.336808689942017736E-15 ) ) ;
#243 = EDGE_LOOP ( 'NONE', ( #222 ) ) ;
ENDSEC;
END-ISO-10303-21;
