ISO-10303-21;
HEADER;
FILE_DESCRIPTION (( 'STEP AP203' ),
    '1' );
FILE_NAME ('334851.step',
    '2021-11-09T06:47:02',
    ( '' ),
    ( '' ),
    'SwSTEP 2.0',
    'SolidWorks 2019',
    '' );
FILE_SCHEMA (( 'CONFIG_CONTROL_DESIGN' ));
ENDSEC;

DATA;
#1 = PERSON_AND_ORGANIZATION ( #77, #144 ) ;
#2 = SHAPE_DEFINITION_REPRESENTATION ( #179, #168 ) ;
#3 = COORDINATED_UNIVERSAL_TIME_OFFSET ( 1, 0, .AHEAD. ) ;
#4 = CLOSED_SHELL ( 'NONE', ( #161, #97, #182, #197, #127, #142 ) ) ;
#5 = ORIENTED_EDGE ( 'NONE', *, *, #55, .F. ) ;
#6 = CC_DESIGN_PERSON_AND_ORGANIZATION_ASSIGNMENT ( #202, #146, ( #129 ) ) ;
#7 = DIRECTION ( 'NONE',  ( 3.491481338843133355E-15, -0.0000000000000000000, 1.000000000000000000 ) ) ;
#8 = CC_DESIGN_SECURITY_CLASSIFICATION ( #76, ( #119 ) ) ;
#9 = CARTESIAN_POINT ( 'NONE',  ( 2.680585775422580254E-14, 0.0000000000000000000, 7.677502799745064443 ) ) ;
#10 = CARTESIAN_POINT ( 'NONE',  ( 8.030407079339203364E-16, 0.0000000000000000000, 0.2299999999999998990 ) ) ;
#11 = ORIENTED_EDGE ( 'NONE', *, *, #78, .F. ) ;
#12 = AXIS2_PLACEMENT_3D ( 'NONE', #181, #112, #21 ) ;
#13 = CARTESIAN_POINT ( 'NONE',  ( 8.030407079339203364E-16, -2.805373121306240258E-17, 0.2299999999999998990 ) ) ;
#14 = PRODUCT_DEFINITION ( 'UNKNOWN', '', #119, #206 ) ;
#15 = DIRECTION ( 'NONE',  ( 1.000000000000000000, 0.0000000000000000000, -3.614007241618349165E-15 ) ) ;
#16 = CC_DESIGN_PERSON_AND_ORGANIZATION_ASSIGNMENT ( #147, #152, ( #119 ) ) ;
#17 = AXIS2_PLACEMENT_3D ( 'NONE', #207, #137, #87 ) ;
#18 =( NAMED_UNIT ( * ) PLANE_ANGLE_UNIT ( ) SI_UNIT ( $, .RADIAN. ) );
#19 = MECHANICAL_CONTEXT ( 'NONE', #51, 'mechanical' ) ;
#20 = AXIS2_PLACEMENT_3D ( 'NONE', #90, #49, #191 ) ;
#21 = DIRECTION ( 'NONE',  ( 1.000000000000000000, 0.0000000000000000000, 0.0000000000000000000 ) ) ;
#22 = PERSON_AND_ORGANIZATION_ROLE ( 'design_supplier' ) ;
#23 = APPROVAL_STATUS ( 'not_yet_approved' ) ;
#24 = ORIENTED_EDGE ( 'NONE', *, *, #35, .T. ) ;
#25 = EDGE_CURVE ( 'NONE', #159, #159, #30, .T. ) ;
#26 = APPROVAL_ROLE ( '' ) ;
#27 = DIRECTION ( 'NONE',  ( 3.491481338843133355E-15, -0.0000000000000000000, 1.000000000000000000 ) ) ;
#28 = DIRECTION ( 'NONE',  ( -3.491481338843133355E-15, 0.0000000000000000000, -1.000000000000000000 ) ) ;
#29 = APPROVAL_PERSON_ORGANIZATION ( #98, #234, #37 ) ;
#30 = CIRCLE ( 'NONE', #39, 2.000000000000000000 ) ;
#31 = DIRECTION ( 'NONE',  ( 3.491481338843133355E-15, -0.0000000000000000000, 1.000000000000000000 ) ) ;
#32 = PLANE ( 'NONE',  #83 ) ;
#33 = CIRCLE ( 'NONE', #190, 0.07499999999999998335 ) ;
#34 = FACE_OUTER_BOUND ( 'NONE', #228, .T. ) ;
#35 = EDGE_CURVE ( 'NONE', #217, #217, #183, .T. ) ;
#36 = CALENDAR_DATE ( 2021, 9, 11 ) ;
#37 = APPROVAL_ROLE ( '' ) ;
#38 = APPROVAL_STATUS ( 'not_yet_approved' ) ;
#39 = AXIS2_PLACEMENT_3D ( 'NONE', #186, #84, #151 ) ;
#40 = APPROVAL_DATE_TIME ( #162, #234 ) ;
#41 = PERSON_AND_ORGANIZATION ( #77, #144 ) ;
#42 = CC_DESIGN_PERSON_AND_ORGANIZATION_ASSIGNMENT ( #165, #22, ( #119 ) ) ;
#43 = ORIENTED_EDGE ( 'NONE', *, *, #104, .T. ) ;
#44 = AXIS2_PLACEMENT_3D ( 'NONE', #171, #7, #231 ) ;
#45 = EDGE_LOOP ( 'NONE', ( #66 ) ) ;
#46 = FACE_OUTER_BOUND ( 'NONE', #210, .T. ) ;
#47 = CLOSED_SHELL ( 'NONE', ( #71, #212, #130 ) ) ;
#48 = CONICAL_SURFACE ( 'NONE', #180, 2.000000000000000000, 0.2617993877991428020 ) ;
#49 = DIRECTION ( 'NONE',  ( 3.491481338843133355E-15, -0.0000000000000000000, 1.000000000000000000 ) ) ;
#50 = DIRECTION ( 'NONE',  ( -3.491481338843133355E-15, 0.0000000000000000000, -1.000000000000000000 ) ) ;
#51 = APPLICATION_CONTEXT ( 'configuration controlled 3d designs of mechanical parts and assemblies' ) ;
#52 = FACE_OUTER_BOUND ( 'NONE', #101, .T. ) ;
#53 =( GEOMETRIC_REPRESENTATION_CONTEXT ( 3 ) GLOBAL_UNCERTAINTY_ASSIGNED_CONTEXT ( ( #64 ) ) GLOBAL_UNIT_ASSIGNED_CONTEXT ( ( #223, #18, #133 ) ) REPRESENTATION_CONTEXT ( 'NONE', 'WORKASPACE' ) );
#54 = CARTESIAN_POINT ( 'NONE',  ( 2.000000000000027089, 0.0000000000000000000, 7.677502799745057338 ) ) ;
#55 = EDGE_CURVE ( 'NONE', #194, #194, #195, .T. ) ;
#56 = COORDINATED_UNIVERSAL_TIME_OFFSET ( 1, 0, .AHEAD. ) ;
#57 = DATE_TIME_ROLE ( 'creation_date' ) ;
#58 = CALENDAR_DATE ( 2021, 9, 11 ) ;
#59 = APPLICATION_PROTOCOL_DEFINITION ( 'international standard', 'config_control_design', 1994, #51 ) ;
#60 = EDGE_CURVE ( 'NONE', #184, #184, #233, .T. ) ;
#61 = CONICAL_SURFACE ( 'NONE', #241, 1.600000000000000089, 0.7853981633974512766 ) ;
#62 = EDGE_LOOP ( 'NONE', ( #5 ) ) ;
#63 = EDGE_LOOP ( 'NONE', ( #232 ) ) ;
#64 = UNCERTAINTY_MEASURE_WITH_UNIT (LENGTH_MEASURE( 1.000000000000000082E-05 ), #223, 'distance_accuracy_value', 'NONE');
#65 = FACE_OUTER_BOUND ( 'NONE', #216, .T. ) ;
#66 = ORIENTED_EDGE ( 'NONE', *, *, #25, .T. ) ;
#67 = LOCAL_TIME ( 7, 47, 2.000000000000000000, #243 ) ;
#68 = MANIFOLD_SOLID_BREP ( 'Corps-Déplacer/Copier1[1]', #4 ) ;
#69 = FACE_OUTER_BOUND ( 'NONE', #134, .T. ) ;
#70 = CARTESIAN_POINT ( 'NONE',  ( 1.326762908760390423E-13, 0.0000000000000000000, 38.00000000000000000 ) ) ;
#71 = ADVANCED_FACE ( 'NONE', ( #65 ), #125, .T. ) ;
#72 = DIRECTION ( 'NONE',  ( 1.000000000000000000, 0.0000000000000000000, -3.491481338843132961E-15 ) ) ;
#73 = ORIENTED_EDGE ( 'NONE', *, *, #25, .F. ) ;
#74 = CARTESIAN_POINT ( 'NONE',  ( 8.030407079339203364E-16, -2.805373121306240258E-17, 0.2299999999999998990 ) ) ;
#75 = DIRECTION ( 'NONE',  ( 3.491481338843133355E-15, -0.0000000000000000000, 1.000000000000000000 ) ) ;
#76 = SECURITY_CLASSIFICATION ( '', '', #115 ) ;
#77 = PERSON ( 'UNSPECIFIED', 'UNSPECIFIED', 'UNSPECIFIED', ('UNSPECIFIED'), ('UNSPECIFIED'), ('UNSPECIFIED') ) ;
#78 = EDGE_CURVE ( 'NONE', #200, #200, #33, .T. ) ;
#79 = LOCAL_TIME ( 7, 47, 2.000000000000000000, #56 ) ;
#80 = APPLICATION_CONTEXT ( 'configuration controlled 3d designs of mechanical parts and assemblies' ) ;
#81 = PERSON_AND_ORGANIZATION_ROLE ( 'creator' ) ;
#82 = CALENDAR_DATE ( 2021, 9, 11 ) ;
#83 = AXIS2_PLACEMENT_3D ( 'NONE', #138, #31, #157 ) ;
#84 = DIRECTION ( 'NONE',  ( 3.491481338843133355E-15, -0.0000000000000000000, 1.000000000000000000 ) ) ;
#85 = COORDINATED_UNIVERSAL_TIME_OFFSET ( 1, 0, .AHEAD. ) ;
#86 = EDGE_LOOP ( 'NONE', ( #92 ) ) ;
#87 = DIRECTION ( 'NONE',  ( 1.000000000000000000, 0.0000000000000000000, -3.786988086178693069E-15 ) ) ;
#88 = FACE_OUTER_BOUND ( 'NONE', #205, .T. ) ;
#89 = APPROVAL ( #38, 'UNSPECIFIED' ) ;
#90 = CARTESIAN_POINT ( 'NONE',  ( 0.0000000000000000000, 0.0000000000000000000, 0.0000000000000000000 ) ) ;
#91 = PLANE ( 'NONE',  #201 ) ;
#92 = ORIENTED_EDGE ( 'NONE', *, *, #121, .F. ) ;
#93 = DIRECTION ( 'NONE',  ( 1.000000000000000000, 0.0000000000000000000, -3.491481338843132961E-15 ) ) ;
#94 = FACE_OUTER_BOUND ( 'NONE', #86, .T. ) ;
#95 = AXIS2_PLACEMENT_3D ( 'NONE', #230, #27, #103 ) ;
#96 = VERTEX_POINT ( 'NONE', #196 ) ;
#97 = ADVANCED_FACE ( 'NONE', ( #215, #236 ), #61, .T. ) ;
#98 = PERSON_AND_ORGANIZATION ( #77, #144 ) ;
#99 = AXIS2_PLACEMENT_3D ( 'NONE', #74, #139, #173 ) ;
#100 = APPROVAL_STATUS ( 'not_yet_approved' ) ;
#101 = EDGE_LOOP ( 'NONE', ( #43 ) ) ;
#102 = APPROVAL_DATE_TIME ( #185, #242 ) ;
#103 = DIRECTION ( 'NONE',  ( 1.000000000000000000, 0.0000000000000000000, -3.614007241618349165E-15 ) ) ;
#104 = EDGE_CURVE ( 'NONE', #96, #96, #229, .T. ) ;
#105 = CARTESIAN_POINT ( 'NONE',  ( -9.831781012932406109E-37, 0.0000000000000000000, -2.815934000148506281E-22 ) ) ;
#106 = CC_DESIGN_APPROVAL ( #242, ( #76 ) ) ;
#107 = CARTESIAN_POINT ( 'NONE',  ( 2.680585775422580254E-14, 0.0000000000000000000, 7.677502799745064443 ) ) ;
#108 = FACE_OUTER_BOUND ( 'NONE', #170, .T. ) ;
#109 = FACE_OUTER_BOUND ( 'NONE', #63, .T. ) ;
#110 = DIRECTION ( 'NONE',  ( -1.000000000000000000, 0.0000000000000000000, 4.336808689942017736E-15 ) ) ;
#111 = CARTESIAN_POINT ( 'NONE',  ( 0.1431483474218626095, 0.0000000000000000000, 0.7476380902050279165 ) ) ;
#112 = DIRECTION ( 'NONE',  ( 0.0000000000000000000, 0.0000000000000000000, 1.000000000000000000 ) ) ;
#113 = APPLICATION_PROTOCOL_DEFINITION ( 'international standard', 'config_control_design', 1994, #80 ) ;
#114 = APPROVAL_ROLE ( '' ) ;
#115 = SECURITY_CLASSIFICATION_LEVEL ( 'unclassified' ) ;
#116 = AXIS2_PLACEMENT_3D ( 'NONE', #156, #160, #15 ) ;
#117 = ORIENTED_EDGE ( 'NONE', *, *, #55, .T. ) ;
#118 = CC_DESIGN_DATE_AND_TIME_ASSIGNMENT ( #226, #224, ( #76 ) ) ;
#119 = PRODUCT_DEFINITION_FORMATION_WITH_SPECIFIED_SOURCE ( 'ANY', '', #129, .NOT_KNOWN. ) ;
#120 = ORIENTED_EDGE ( 'NONE', *, *, #121, .T. ) ;
#121 = EDGE_CURVE ( 'NONE', #148, #148, #214, .T. ) ;
#122 = FACE_BOUND ( 'NONE', #175, .T. ) ;
#123 = CC_DESIGN_APPROVAL ( #234, ( #14 ) ) ;
#124 = DIRECTION ( 'NONE',  ( 1.000000000000000000, 0.0000000000000000000, -3.469446951953614189E-15 ) ) ;
#125 = PLANE ( 'NONE',  #164 ) ;
#126 = CYLINDRICAL_SURFACE ( 'NONE', #209, 0.07499999999999998335 ) ;
#127 = ADVANCED_FACE ( 'NONE', ( #122, #94 ), #48, .T. ) ;
#128 = CARTESIAN_POINT ( 'NONE',  ( 0.07500000000000077438, 0.0000000000000000000, 0.2299999999999993716 ) ) ;
#129 = PRODUCT ( '334851', '334851', '', ( #19 ) ) ;
#130 = ADVANCED_FACE ( 'NONE', ( #88 ), #239, .F. ) ;
#131 = CARTESIAN_POINT ( 'NONE',  ( 1.600000000000132871, 0.0000000000000000000, 37.99999999999999289 ) ) ;
#132 = PERSON_AND_ORGANIZATION ( #77, #144 ) ;
#133 =( NAMED_UNIT ( * ) SI_UNIT ( $, .STERADIAN. ) SOLID_ANGLE_UNIT ( ) );
#134 = EDGE_LOOP ( 'NONE', ( #117 ) ) ;
#135 = CARTESIAN_POINT ( 'NONE',  ( -4.915890506466203054E-37, 0.0000000000000000000, -1.407967000074253141E-22 ) ) ;
#136 = APPROVAL_PERSON_ORGANIZATION ( #41, #242, #26 ) ;
#137 = DIRECTION ( 'NONE',  ( 3.491481338843133355E-15, -0.0000000000000000000, 1.000000000000000000 ) ) ;
#138 = CARTESIAN_POINT ( 'NONE',  ( 1.326762908760390423E-13, 0.0000000000000000000, 38.00000000000000000 ) ) ;
#139 = DIRECTION ( 'NONE',  ( -3.491481338843133355E-15, 0.0000000000000000000, -1.000000000000000000 ) ) ;
#140 = DIRECTION ( 'NONE',  ( 1.000000000000000000, 0.0000000000000000000, -3.491481338843132961E-15 ) ) ;
#141 = ORIENTED_EDGE ( 'NONE', *, *, #104, .F. ) ;
#142 = ADVANCED_FACE ( 'NONE', ( #155 ), #91, .T. ) ;
#143 = CARTESIAN_POINT ( 'NONE',  ( 2.000000000000131450, 0.0000000000000000000, 37.59999999999999432 ) ) ;
#144 = ORGANIZATION ( 'UNSPECIFIED', 'UNSPECIFIED', '' ) ;
#145 = LOCAL_TIME ( 7, 47, 2.000000000000000000, #3 ) ;
#146 = PERSON_AND_ORGANIZATION_ROLE ( 'design_owner' ) ;
#147 = PERSON_AND_ORGANIZATION ( #77, #144 ) ;
#148 = VERTEX_POINT ( 'NONE', #54 ) ;
#149 = DATE_AND_TIME ( #82, #145 ) ;
#150 = AXIS2_PLACEMENT_3D ( 'NONE', #9, #75, #124 ) ;
#151 = DIRECTION ( 'NONE',  ( 1.000000000000000000, 0.0000000000000000000, -3.469446951953614189E-15 ) ) ;
#152 = PERSON_AND_ORGANIZATION_ROLE ( 'creator' ) ;
#153 = ORIENTED_EDGE ( 'NONE', *, *, #60, .T. ) ;
#154 = AXIS2_PLACEMENT_3D ( 'NONE', #10, #237, #140 ) ;
#155 = FACE_OUTER_BOUND ( 'NONE', #238, .T. ) ;
#156 = CARTESIAN_POINT ( 'NONE',  ( 8.030407079339194490E-16, 0.0000000000000000000, 0.2299999999999996492 ) ) ;
#157 = DIRECTION ( 'NONE',  ( 1.000000000000000000, 0.0000000000000000000, -3.491481338843133355E-15 ) ) ;
#158 = ORIENTED_EDGE ( 'NONE', *, *, #35, .F. ) ;
#159 = VERTEX_POINT ( 'NONE', #143 ) ;
#160 = DIRECTION ( 'NONE',  ( 3.491481338843133355E-15, -0.0000000000000000000, 1.000000000000000000 ) ) ;
#161 = ADVANCED_FACE ( 'NONE', ( #189, #46 ), #213, .T. ) ;
#162 = DATE_AND_TIME ( #36, #222 ) ;
#163 = CC_DESIGN_PERSON_AND_ORGANIZATION_ASSIGNMENT ( #1, #81, ( #14 ) ) ;
#164 = AXIS2_PLACEMENT_3D ( 'NONE', #135, #28, #188 ) ;
#165 = PERSON_AND_ORGANIZATION ( #77, #144 ) ;
#166 = CALENDAR_DATE ( 2021, 9, 11 ) ;
#167 = PERSON_AND_ORGANIZATION_ROLE ( 'classification_officer' ) ;
#168 = ADVANCED_BREP_SHAPE_REPRESENTATION ( '334851', ( #68, #221, #12 ), #53 ) ;
#169 = PRODUCT_RELATED_PRODUCT_CATEGORY ( 'detail', '', ( #129 ) ) ;
#170 = EDGE_LOOP ( 'NONE', ( #158 ) ) ;
#171 = CARTESIAN_POINT ( 'NONE',  ( 1.326762908760390423E-13, 0.0000000000000000000, 38.00000000000000000 ) ) ;
#172 = APPROVAL_PERSON_ORGANIZATION ( #132, #89, #114 ) ;
#173 = DIRECTION ( 'NONE',  ( -1.000000000000000000, 0.0000000000000000000, 3.491481338843133355E-15 ) ) ;
#174 = DIRECTION ( 'NONE',  ( 3.491481338843133355E-15, -0.0000000000000000000, 1.000000000000000000 ) ) ;
#175 = EDGE_LOOP ( 'NONE', ( #153 ) ) ;
#176 = DIRECTION ( 'NONE',  ( 3.491481338843133355E-15, -0.0000000000000000000, 1.000000000000000000 ) ) ;
#177 = CC_DESIGN_APPROVAL ( #89, ( #119 ) ) ;
#178 = DIRECTION ( 'NONE',  ( 1.000000000000000000, 0.0000000000000000000, -3.469446951953614189E-15 ) ) ;
#179 = PRODUCT_DEFINITION_SHAPE ( 'NONE', 'NONE',  #14 ) ;
#180 = AXIS2_PLACEMENT_3D ( 'NONE', #107, #240, #178 ) ;
#181 = CARTESIAN_POINT ( 'NONE',  ( 0.0000000000000000000, 0.0000000000000000000, 0.0000000000000000000 ) ) ;
#182 = ADVANCED_FACE ( 'NONE', ( #69 ), #32, .T. ) ;
#183 = CIRCLE ( 'NONE', #95, 0.07499999999999998335 ) ;
#184 = VERTEX_POINT ( 'NONE', #111 ) ;
#185 = DATE_AND_TIME ( #58, #218 ) ;
#186 = CARTESIAN_POINT ( 'NONE',  ( 1.312796983405018142E-13, 0.0000000000000000000, 37.60000000000000142 ) ) ;
#187 = TOROIDAL_SURFACE ( 'NONE', #154, 2.075000000000000178, 2.000000000000000000 ) ;
#188 = DIRECTION ( 'NONE',  ( -1.000000000000000000, 0.0000000000000000000, 3.491481338843133355E-15 ) ) ;
#189 = FACE_OUTER_BOUND ( 'NONE', #192, .T. ) ;
#190 = AXIS2_PLACEMENT_3D ( 'NONE', #105, #174, #72 ) ;
#191 = DIRECTION ( 'NONE',  ( 1.000000000000000000, 0.0000000000000000000, -3.491481338843133355E-15 ) ) ;
#192 = EDGE_LOOP ( 'NONE', ( #73 ) ) ;
#193 = CARTESIAN_POINT ( 'NONE',  ( 0.0000000000000000000, 0.0000000000000000000, 0.0000000000000000000 ) ) ;
#194 = VERTEX_POINT ( 'NONE', #131 ) ;
#195 = CIRCLE ( 'NONE', #44, 1.600000000000000089 ) ;
#196 = CARTESIAN_POINT ( 'NONE',  ( 0.07500000000000077438, 0.0000000000000000000, 0.2299999999999993716 ) ) ;
#197 = ADVANCED_FACE ( 'NONE', ( #52, #34 ), #187, .F. ) ;
#198 = COORDINATED_UNIVERSAL_TIME_OFFSET ( 1, 0, .AHEAD. ) ;
#199 = PERSON_AND_ORGANIZATION ( #77, #144 ) ;
#200 = VERTEX_POINT ( 'NONE', #220 ) ;
#201 = AXIS2_PLACEMENT_3D ( 'NONE', #13, #235, #211 ) ;
#202 = PERSON_AND_ORGANIZATION ( #77, #144 ) ;
#203 = CALENDAR_DATE ( 2021, 9, 11 ) ;
#204 = ORIENTED_EDGE ( 'NONE', *, *, #60, .F. ) ;
#205 = EDGE_LOOP ( 'NONE', ( #24 ) ) ;
#206 = DESIGN_CONTEXT ( 'detailed design', #80, 'design' ) ;
#207 = CARTESIAN_POINT ( 'NONE',  ( 2.610364440159176027E-15, 0.0000000000000000000, 0.7476380902050284716 ) ) ;
#208 = CC_DESIGN_PERSON_AND_ORGANIZATION_ASSIGNMENT ( #199, #167, ( #76 ) ) ;
#209 = AXIS2_PLACEMENT_3D ( 'NONE', #193, #176, #93 ) ;
#210 = EDGE_LOOP ( 'NONE', ( #120 ) ) ;
#211 = DIRECTION ( 'NONE',  ( -1.000000000000000000, 0.0000000000000000000, 3.491481338843133355E-15 ) ) ;
#212 = ADVANCED_FACE ( 'NONE', ( #109, #108 ), #126, .T. ) ;
#213 = CYLINDRICAL_SURFACE ( 'NONE', #20, 2.000000000000000000 ) ;
#214 = CIRCLE ( 'NONE', #150, 2.000000000000000000 ) ;
#215 = FACE_OUTER_BOUND ( 'NONE', #45, .T. ) ;
#216 = EDGE_LOOP ( 'NONE', ( #11 ) ) ;
#217 = VERTEX_POINT ( 'NONE', #128 ) ;
#218 = LOCAL_TIME ( 7, 47, 2.000000000000000000, #85 ) ;
#219 = CC_DESIGN_DATE_AND_TIME_ASSIGNMENT ( #225, #57, ( #14 ) ) ;
#220 = CARTESIAN_POINT ( 'NONE',  ( 0.07499999999999998335, 0.0000000000000000000, -2.618613820066349284E-16 ) ) ;
#221 = MANIFOLD_SOLID_BREP ( 'Corps-Déplacer/Copier1[2]', #47 ) ;
#222 = LOCAL_TIME ( 7, 47, 2.000000000000000000, #198 ) ;
#223 =( LENGTH_UNIT ( ) NAMED_UNIT ( * ) SI_UNIT ( .MILLI., .METRE. ) );
#224 = DATE_TIME_ROLE ( 'classification_date' ) ;
#225 = DATE_AND_TIME ( #166, #67 ) ;
#226 = DATE_AND_TIME ( #203, #79 ) ;
#227 = APPROVAL_DATE_TIME ( #149, #89 ) ;
#228 = EDGE_LOOP ( 'NONE', ( #204 ) ) ;
#229 = CIRCLE ( 'NONE', #116, 0.07499999999999998335 ) ;
#230 = CARTESIAN_POINT ( 'NONE',  ( 8.030407079339194490E-16, 0.0000000000000000000, 0.2299999999999996492 ) ) ;
#231 = DIRECTION ( 'NONE',  ( 1.000000000000000000, 0.0000000000000000000, -4.336808689942017736E-15 ) ) ;
#232 = ORIENTED_EDGE ( 'NONE', *, *, #78, .T. ) ;
#233 = CIRCLE ( 'NONE', #17, 0.1431483474218600005 ) ;
#234 = APPROVAL ( #100, 'UNSPECIFIED' ) ;
#235 = DIRECTION ( 'NONE',  ( -3.491481338843133355E-15, 0.0000000000000000000, -1.000000000000000000 ) ) ;
#236 = FACE_BOUND ( 'NONE', #62, .T. ) ;
#237 = DIRECTION ( 'NONE',  ( 3.491481338843133355E-15, -0.0000000000000000000, 1.000000000000000000 ) ) ;
#238 = EDGE_LOOP ( 'NONE', ( #141 ) ) ;
#239 = PLANE ( 'NONE',  #99 ) ;
#240 = DIRECTION ( 'NONE',  ( 3.491481338843133355E-15, -0.0000000000000000000, 1.000000000000000000 ) ) ;
#241 = AXIS2_PLACEMENT_3D ( 'NONE', #70, #50, #110 ) ;
#242 = APPROVAL ( #23, 'UNSPECIFIED' ) ;
#243 = COORDINATED_UNIVERSAL_TIME_OFFSET ( 1, 0, .AHEAD. ) ;
ENDSEC;
END-ISO-10303-21;
