ISO-10303-21;
HEADER;
FILE_DESCRIPTION (( 'STEP AP203' ),
    '1' );
FILE_NAME ('334850.step',
    '2021-11-09T06:47:02',
    ( '' ),
    ( '' ),
    'SwSTEP 2.0',
    'SolidWorks 2019',
    '' );
FILE_SCHEMA (( 'CONFIG_CONTROL_DESIGN' ));
ENDSEC;

DATA;
#1 = PLANE ( 'NONE',  #54 ) ;
#2 = DIRECTION ( 'NONE',  ( 1.000000000000000000, 0.0000000000000000000, -3.491481338843133750E-15 ) ) ;
#3 = EDGE_CURVE ( 'NONE', #98, #98, #238, .T. ) ;
#4 = CYLINDRICAL_SURFACE ( 'NONE', #221, 2.000000000000000000 ) ;
#5 = VERTEX_POINT ( 'NONE', #150 ) ;
#6 = DIRECTION ( 'NONE',  ( -1.000000000000000000, 0.0000000000000000000, 3.491481338843133355E-15 ) ) ;
#7 = CARTESIAN_POINT ( 'NONE',  ( 2.685229889087438754E-14, 0.0000000000000000000, 7.690804069934288556 ) ) ;
#8 = CC_DESIGN_APPROVAL ( #142, ( #180 ) ) ;
#9 = PERSON_AND_ORGANIZATION ( #63, #158 ) ;
#10 = APPROVAL ( #141, 'UNSPECIFIED' ) ;
#11 = PERSON_AND_ORGANIZATION ( #63, #158 ) ;
#12 = AXIS2_PLACEMENT_3D ( 'NONE', #64, #219, #19 ) ;
#13 = CC_DESIGN_DATE_AND_TIME_ASSIGNMENT ( #36, #215, ( #110 ) ) ;
#14 = COORDINATED_UNIVERSAL_TIME_OFFSET ( 1, 0, .AHEAD. ) ;
#15 = ORIENTED_EDGE ( 'NONE', *, *, #232, .T. ) ;
#16 = ADVANCED_FACE ( 'NONE', ( #128, #125 ), #34, .T. ) ;
#17 = ORIENTED_EDGE ( 'NONE', *, *, #70, .F. ) ;
#18 = ORIENTED_EDGE ( 'NONE', *, *, #70, .T. ) ;
#19 = DIRECTION ( 'NONE',  ( -1.000000000000000000, 0.0000000000000000000, 3.491481338843133355E-15 ) ) ;
#20 = AXIS2_PLACEMENT_3D ( 'NONE', #131, #83, #209 ) ;
#21 = DATE_AND_TIME ( #111, #87 ) ;
#22 = EDGE_LOOP ( 'NONE', ( #167 ) ) ;
#23 = FACE_OUTER_BOUND ( 'NONE', #205, .T. ) ;
#24 = CARTESIAN_POINT ( 'NONE',  ( 0.1181483474218624902, 0.0000000000000000000, 0.6676380902050280675 ) ) ;
#25 = CARTESIAN_POINT ( 'NONE',  ( 2.685229889087438754E-14, 0.0000000000000000000, 7.690804069934288556 ) ) ;
#26 = CARTESIAN_POINT ( 'NONE',  ( 1.600000000000132871, 0.0000000000000000000, 37.99999999999999289 ) ) ;
#27 = APPROVAL_DATE_TIME ( #21, #142 ) ;
#28 = PRODUCT ( '334850', '334850', '', ( #114 ) ) ;
#29 = FACE_BOUND ( 'NONE', #56, .T. ) ;
#30 = CIRCLE ( 'NONE', #59, 0.05000000000000012768 ) ;
#31 = AXIS2_PLACEMENT_3D ( 'NONE', #115, #154, #82 ) ;
#32 = PERSON_AND_ORGANIZATION ( #63, #158 ) ;
#33 = CALENDAR_DATE ( 2021, 9, 11 ) ;
#34 = CONICAL_SURFACE ( 'NONE', #53, 1.600000000000000089, 0.7853981633974512766 ) ;
#35 = AXIS2_PLACEMENT_3D ( 'NONE', #212, #47, #68 ) ;
#36 = DATE_AND_TIME ( #33, #144 ) ;
#37 = CC_DESIGN_APPROVAL ( #10, ( #110 ) ) ;
#38 = ORIENTED_EDGE ( 'NONE', *, *, #161, .T. ) ;
#39 = APPROVAL ( #197, 'UNSPECIFIED' ) ;
#40 = CARTESIAN_POINT ( 'NONE',  ( 1.312796983405018142E-13, 0.0000000000000000000, 37.60000000000000142 ) ) ;
#41 = COORDINATED_UNIVERSAL_TIME_OFFSET ( 1, 0, .AHEAD. ) ;
#42 = APPROVAL_PERSON_ORGANIZATION ( #32, #10, #174 ) ;
#43 = ORIENTED_EDGE ( 'NONE', *, *, #232, .F. ) ;
#44 = VERTEX_POINT ( 'NONE', #26 ) ;
#45 = DIRECTION ( 'NONE',  ( 1.000000000000000000, 0.0000000000000000000, -3.252606517456505019E-15 ) ) ;
#46 = CARTESIAN_POINT ( 'NONE',  ( 2.000000000000027089, 0.0000000000000000000, 7.690804069934281451 ) ) ;
#47 = DIRECTION ( 'NONE',  ( 3.491481338843133355E-15, -0.0000000000000000000, 1.000000000000000000 ) ) ;
#48 = AXIS2_PLACEMENT_3D ( 'NONE', #191, #57, #80 ) ;
#49 = DIRECTION ( 'NONE',  ( 1.000000000000000000, 0.0000000000000000000, -3.491481338843133355E-15 ) ) ;
#50 = CARTESIAN_POINT ( 'NONE',  ( 2.331045933051725595E-15, 0.0000000000000000000, 0.6676380902050285115 ) ) ;
#51 = PERSON_AND_ORGANIZATION_ROLE ( 'design_supplier' ) ;
#52 = PERSON_AND_ORGANIZATION ( #63, #158 ) ;
#53 = AXIS2_PLACEMENT_3D ( 'NONE', #62, #213, #169 ) ;
#54 = AXIS2_PLACEMENT_3D ( 'NONE', #157, #190, #138 ) ;
#55 = EDGE_CURVE ( 'NONE', #206, #206, #164, .T. ) ;
#56 = EDGE_LOOP ( 'NONE', ( #146 ) ) ;
#57 = DIRECTION ( 'NONE',  ( 3.491481338843133355E-15, -0.0000000000000000000, 1.000000000000000000 ) ) ;
#58 = VERTEX_POINT ( 'NONE', #211 ) ;
#59 = AXIS2_PLACEMENT_3D ( 'NONE', #65, #188, #45 ) ;
#60 = CYLINDRICAL_SURFACE ( 'NONE', #35, 0.05000000000000012768 ) ;
#61 = CARTESIAN_POINT ( 'NONE',  ( 0.05000000000000012768, 0.0000000000000000000, -1.745743485355571369E-16 ) ) ;
#62 = CARTESIAN_POINT ( 'NONE',  ( 1.326762908760390423E-13, 0.0000000000000000000, 38.00000000000000000 ) ) ;
#63 = PERSON ( 'UNSPECIFIED', 'UNSPECIFIED', 'UNSPECIFIED', ('UNSPECIFIED'), ('UNSPECIFIED'), ('UNSPECIFIED') ) ;
#64 = CARTESIAN_POINT ( 'NONE',  ( 5.237222008264694116E-16, -2.032879073410316500E-17, 0.1499999999999998279 ) ) ;
#65 = CARTESIAN_POINT ( 'NONE',  ( 5.237222008264685242E-16, 0.0000000000000000000, 0.1499999999999995781 ) ) ;
#66 =( GEOMETRIC_REPRESENTATION_CONTEXT ( 3 ) GLOBAL_UNCERTAINTY_ASSIGNED_CONTEXT ( ( #124 ) ) GLOBAL_UNIT_ASSIGNED_CONTEXT ( ( #100, #170, #189 ) ) REPRESENTATION_CONTEXT ( 'NONE', 'WORKASPACE' ) );
#67 = PRODUCT_DEFINITION_SHAPE ( 'NONE', 'NONE',  #180 ) ;
#68 = DIRECTION ( 'NONE',  ( 1.000000000000000000, 0.0000000000000000000, -3.491481338843133355E-15 ) ) ;
#69 = FACE_OUTER_BOUND ( 'NONE', #93, .T. ) ;
#70 = EDGE_CURVE ( 'NONE', #58, #58, #30, .T. ) ;
#71 = COORDINATED_UNIVERSAL_TIME_OFFSET ( 1, 0, .AHEAD. ) ;
#72 = CC_DESIGN_SECURITY_CLASSIFICATION ( #110, ( #165 ) ) ;
#73 = DATE_TIME_ROLE ( 'creation_date' ) ;
#74 = ADVANCED_FACE ( 'NONE', ( #103, #132 ), #4, .T. ) ;
#75 = ORIENTED_EDGE ( 'NONE', *, *, #3, .F. ) ;
#76 = AXIS2_PLACEMENT_3D ( 'NONE', #25, #102, #117 ) ;
#77 = EDGE_LOOP ( 'NONE', ( #163 ) ) ;
#78 = PERSON_AND_ORGANIZATION_ROLE ( 'design_owner' ) ;
#79 = EDGE_LOOP ( 'NONE', ( #75 ) ) ;
#80 = DIRECTION ( 'NONE',  ( 1.000000000000000000, 0.0000000000000000000, -4.336808689942017736E-15 ) ) ;
#81 = PRODUCT_RELATED_PRODUCT_CATEGORY ( 'detail', '', ( #28 ) ) ;
#82 = DIRECTION ( 'NONE',  ( 1.000000000000000000, 0.0000000000000000000, -3.252606517456505019E-15 ) ) ;
#83 = DIRECTION ( 'NONE',  ( 0.0000000000000000000, 0.0000000000000000000, 1.000000000000000000 ) ) ;
#84 = DIRECTION ( 'NONE',  ( 3.491481338843133355E-15, -0.0000000000000000000, 1.000000000000000000 ) ) ;
#85 = EDGE_CURVE ( 'NONE', #5, #5, #227, .T. ) ;
#86 = CARTESIAN_POINT ( 'NONE',  ( 5.237222008264695103E-16, 0.0000000000000000000, 0.1499999999999998557 ) ) ;
#87 = LOCAL_TIME ( 7, 47, 2.000000000000000000, #41 ) ;
#88 = DIRECTION ( 'NONE',  ( 3.491481338843133355E-15, -0.0000000000000000000, 1.000000000000000000 ) ) ;
#89 = CIRCLE ( 'NONE', #76, 2.000000000000000000 ) ;
#90 = PERSON_AND_ORGANIZATION ( #63, #158 ) ;
#91 = ORIENTED_EDGE ( 'NONE', *, *, #3, .T. ) ;
#92 = EDGE_CURVE ( 'NONE', #186, #186, #94, .T. ) ;
#93 = EDGE_LOOP ( 'NONE', ( #220 ) ) ;
#94 = CIRCLE ( 'NONE', #104, 0.05000000000000012768 ) ;
#95 = PLANE ( 'NONE',  #12 ) ;
#96 = ADVANCED_FACE ( 'NONE', ( #29, #113 ), #198, .T. ) ;
#97 = DIRECTION ( 'NONE',  ( -3.491481338843133355E-15, 0.0000000000000000000, -1.000000000000000000 ) ) ;
#98 = VERTEX_POINT ( 'NONE', #166 ) ;
#99 = DIRECTION ( 'NONE',  ( 1.000000000000000000, 0.0000000000000000000, -3.469446951953614189E-15 ) ) ;
#100 =( LENGTH_UNIT ( ) NAMED_UNIT ( * ) SI_UNIT ( .MILLI., .METRE. ) );
#101 = ADVANCED_FACE ( 'NONE', ( #226 ), #159, .T. ) ;
#102 = DIRECTION ( 'NONE',  ( 3.491481338843133355E-15, -0.0000000000000000000, 1.000000000000000000 ) ) ;
#103 = FACE_OUTER_BOUND ( 'NONE', #79, .T. ) ;
#104 = AXIS2_PLACEMENT_3D ( 'NONE', #194, #210, #118 ) ;
#105 = DATE_AND_TIME ( #143, #137 ) ;
#106 = PERSON_AND_ORGANIZATION_ROLE ( 'classification_officer' ) ;
#107 = APPROVAL_PERSON_ORGANIZATION ( #127, #142, #203 ) ;
#108 = PERSON_AND_ORGANIZATION_ROLE ( 'creator' ) ;
#109 = DIRECTION ( 'NONE',  ( 3.491481338843133355E-15, -0.0000000000000000000, 1.000000000000000000 ) ) ;
#110 = SECURITY_CLASSIFICATION ( '', '', #199 ) ;
#111 = CALENDAR_DATE ( 2021, 9, 11 ) ;
#112 = EDGE_LOOP ( 'NONE', ( #43 ) ) ;
#113 = FACE_OUTER_BOUND ( 'NONE', #22, .T. ) ;
#114 = MECHANICAL_CONTEXT ( 'NONE', #139, 'mechanical' ) ;
#115 = CARTESIAN_POINT ( 'NONE',  ( 5.237222008264685242E-16, 0.0000000000000000000, 0.1499999999999995781 ) ) ;
#116 = AXIS2_PLACEMENT_3D ( 'NONE', #208, #97, #6 ) ;
#117 = DIRECTION ( 'NONE',  ( 1.000000000000000000, 0.0000000000000000000, -3.469446951953614189E-15 ) ) ;
#118 = DIRECTION ( 'NONE',  ( 1.000000000000000000, 0.0000000000000000000, -3.491481338843133355E-15 ) ) ;
#119 = APPROVAL_DATE_TIME ( #216, #10 ) ;
#120 = COORDINATED_UNIVERSAL_TIME_OFFSET ( 1, 0, .AHEAD. ) ;
#121 = ADVANCED_FACE ( 'NONE', ( #69, #23 ), #60, .T. ) ;
#122 = CIRCLE ( 'NONE', #48, 1.600000000000000089 ) ;
#123 = CALENDAR_DATE ( 2021, 9, 11 ) ;
#124 = UNCERTAINTY_MEASURE_WITH_UNIT (LENGTH_MEASURE( 1.000000000000000082E-05 ), #100, 'distance_accuracy_value', 'NONE');
#125 = FACE_BOUND ( 'NONE', #112, .T. ) ;
#126 = EDGE_LOOP ( 'NONE', ( #91 ) ) ;
#127 = PERSON_AND_ORGANIZATION ( #63, #158 ) ;
#128 = FACE_OUTER_BOUND ( 'NONE', #126, .T. ) ;
#129 = LOCAL_TIME ( 7, 47, 2.000000000000000000, #71 ) ;
#130 = PLANE ( 'NONE',  #116 ) ;
#131 = CARTESIAN_POINT ( 'NONE',  ( 0.0000000000000000000, 0.0000000000000000000, 0.0000000000000000000 ) ) ;
#132 = FACE_OUTER_BOUND ( 'NONE', #237, .T. ) ;
#133 = VERTEX_POINT ( 'NONE', #46 ) ;
#134 = DIRECTION ( 'NONE',  ( 3.491481338843133355E-15, -0.0000000000000000000, 1.000000000000000000 ) ) ;
#135 = AXIS2_PLACEMENT_3D ( 'NONE', #40, #109, #185 ) ;
#136 = ADVANCED_BREP_SHAPE_REPRESENTATION ( '334850', ( #145, #225, #20 ), #66 ) ;
#137 = LOCAL_TIME ( 7, 47, 2.000000000000000000, #120 ) ;
#138 = DIRECTION ( 'NONE',  ( -1.000000000000000000, 0.0000000000000000000, 3.491481338843133355E-15 ) ) ;
#139 = APPLICATION_CONTEXT ( 'configuration controlled 3d designs of mechanical parts and assemblies' ) ;
#140 = FACE_OUTER_BOUND ( 'NONE', #77, .T. ) ;
#141 = APPROVAL_STATUS ( 'not_yet_approved' ) ;
#142 = APPROVAL ( #224, 'UNSPECIFIED' ) ;
#143 = CALENDAR_DATE ( 2021, 9, 11 ) ;
#144 = LOCAL_TIME ( 7, 47, 2.000000000000000000, #231 ) ;
#145 = MANIFOLD_SOLID_BREP ( 'Corps-Déplacer/Copier1[1]', #177 ) ;
#146 = ORIENTED_EDGE ( 'NONE', *, *, #55, .T. ) ;
#147 = EDGE_LOOP ( 'NONE', ( #187 ) ) ;
#148 = FACE_OUTER_BOUND ( 'NONE', #218, .T. ) ;
#149 = ORIENTED_EDGE ( 'NONE', *, *, #85, .F. ) ;
#150 = CARTESIAN_POINT ( 'NONE',  ( 0.05000000000000065503, 0.0000000000000000000, 0.1499999999999994116 ) ) ;
#151 = FACE_OUTER_BOUND ( 'NONE', #201, .T. ) ;
#152 = APPLICATION_PROTOCOL_DEFINITION ( 'international standard', 'config_control_design', 1994, #139 ) ;
#153 = ADVANCED_FACE ( 'NONE', ( #140 ), #1, .T. ) ;
#154 = DIRECTION ( 'NONE',  ( 3.491481338843133355E-15, -0.0000000000000000000, 1.000000000000000000 ) ) ;
#155 = PERSON_AND_ORGANIZATION ( #63, #158 ) ;
#156 = DIRECTION ( 'NONE',  ( 3.491481338843133355E-15, -0.0000000000000000000, 1.000000000000000000 ) ) ;
#157 = CARTESIAN_POINT ( 'NONE',  ( -4.915890506466203054E-37, 0.0000000000000000000, -1.407967000074253141E-22 ) ) ;
#158 = ORGANIZATION ( 'UNSPECIFIED', 'UNSPECIFIED', '' ) ;
#159 = PLANE ( 'NONE',  #178 ) ;
#160 = APPROVAL_DATE_TIME ( #176, #39 ) ;
#161 = EDGE_CURVE ( 'NONE', #133, #133, #89, .T. ) ;
#162 = CALENDAR_DATE ( 2021, 9, 11 ) ;
#163 = ORIENTED_EDGE ( 'NONE', *, *, #92, .F. ) ;
#164 = CIRCLE ( 'NONE', #234, 0.1181483474218601587 ) ;
#165 = PRODUCT_DEFINITION_FORMATION_WITH_SPECIFIED_SOURCE ( 'ANY', '', #28, .NOT_KNOWN. ) ;
#166 = CARTESIAN_POINT ( 'NONE',  ( 2.000000000000131450, 0.0000000000000000000, 37.59999999999999432 ) ) ;
#167 = ORIENTED_EDGE ( 'NONE', *, *, #161, .F. ) ;
#168 = FACE_OUTER_BOUND ( 'NONE', #242, .T. ) ;
#169 = DIRECTION ( 'NONE',  ( -1.000000000000000000, 0.0000000000000000000, 4.336808689942017736E-15 ) ) ;
#170 =( NAMED_UNIT ( * ) PLANE_ANGLE_UNIT ( ) SI_UNIT ( $, .RADIAN. ) );
#171 = CC_DESIGN_PERSON_AND_ORGANIZATION_ASSIGNMENT ( #9, #214, ( #165 ) ) ;
#172 = DIRECTION ( 'NONE',  ( 1.000000000000000000, 0.0000000000000000000, -3.670646932078551020E-15 ) ) ;
#173 = LOCAL_TIME ( 7, 47, 2.000000000000000000, #14 ) ;
#174 = APPROVAL_ROLE ( '' ) ;
#175 = CC_DESIGN_PERSON_AND_ORGANIZATION_ASSIGNMENT ( #90, #51, ( #165 ) ) ;
#176 = DATE_AND_TIME ( #123, #129 ) ;
#177 = CLOSED_SHELL ( 'NONE', ( #74, #16, #101, #200, #96, #241 ) ) ;
#178 = AXIS2_PLACEMENT_3D ( 'NONE', #230, #134, #49 ) ;
#179 = APPROVAL_ROLE ( '' ) ;
#180 = PRODUCT_DEFINITION ( 'UNKNOWN', '', #165, #181 ) ;
#181 = DESIGN_CONTEXT ( 'detailed design', #240, 'design' ) ;
#182 = CC_DESIGN_PERSON_AND_ORGANIZATION_ASSIGNMENT ( #155, #78, ( #28 ) ) ;
#183 = EDGE_LOOP ( 'NONE', ( #15 ) ) ;
#184 = AXIS2_PLACEMENT_3D ( 'NONE', #86, #228, #2 ) ;
#185 = DIRECTION ( 'NONE',  ( 1.000000000000000000, 0.0000000000000000000, -3.469446951953614189E-15 ) ) ;
#186 = VERTEX_POINT ( 'NONE', #61 ) ;
#187 = ORIENTED_EDGE ( 'NONE', *, *, #55, .F. ) ;
#188 = DIRECTION ( 'NONE',  ( 3.491481338843133355E-15, -0.0000000000000000000, 1.000000000000000000 ) ) ;
#189 =( NAMED_UNIT ( * ) SI_UNIT ( $, .STERADIAN. ) SOLID_ANGLE_UNIT ( ) );
#190 = DIRECTION ( 'NONE',  ( -3.491481338843133355E-15, 0.0000000000000000000, -1.000000000000000000 ) ) ;
#191 = CARTESIAN_POINT ( 'NONE',  ( 1.326762908760390423E-13, 0.0000000000000000000, 38.00000000000000000 ) ) ;
#192 = FACE_OUTER_BOUND ( 'NONE', #147, .T. ) ;
#193 = ADVANCED_FACE ( 'NONE', ( #151 ), #130, .F. ) ;
#194 = CARTESIAN_POINT ( 'NONE',  ( -9.831781012932406109E-37, 0.0000000000000000000, -2.815934000148506281E-22 ) ) ;
#195 = SHAPE_DEFINITION_REPRESENTATION ( #67, #136 ) ;
#196 = CC_DESIGN_DATE_AND_TIME_ASSIGNMENT ( #105, #73, ( #180 ) ) ;
#197 = APPROVAL_STATUS ( 'not_yet_approved' ) ;
#198 = CONICAL_SURFACE ( 'NONE', #239, 2.000000000000000000, 0.2617993877991428020 ) ;
#199 = SECURITY_CLASSIFICATION_LEVEL ( 'unclassified' ) ;
#200 = ADVANCED_FACE ( 'NONE', ( #168, #192 ), #229, .F. ) ;
#201 = EDGE_LOOP ( 'NONE', ( #202 ) ) ;
#202 = ORIENTED_EDGE ( 'NONE', *, *, #85, .T. ) ;
#203 = APPROVAL_ROLE ( '' ) ;
#204 = CLOSED_SHELL ( 'NONE', ( #153, #121, #193 ) ) ;
#205 = EDGE_LOOP ( 'NONE', ( #149 ) ) ;
#206 = VERTEX_POINT ( 'NONE', #24 ) ;
#207 = CC_DESIGN_PERSON_AND_ORGANIZATION_ASSIGNMENT ( #52, #108, ( #180 ) ) ;
#208 = CARTESIAN_POINT ( 'NONE',  ( 5.237222008264694116E-16, -2.032879073410316500E-17, 0.1499999999999998279 ) ) ;
#209 = DIRECTION ( 'NONE',  ( 1.000000000000000000, 0.0000000000000000000, 0.0000000000000000000 ) ) ;
#210 = DIRECTION ( 'NONE',  ( 3.491481338843133355E-15, -0.0000000000000000000, 1.000000000000000000 ) ) ;
#211 = CARTESIAN_POINT ( 'NONE',  ( 0.05000000000000065503, 0.0000000000000000000, 0.1499999999999994116 ) ) ;
#212 = CARTESIAN_POINT ( 'NONE',  ( 0.0000000000000000000, 0.0000000000000000000, 0.0000000000000000000 ) ) ;
#213 = DIRECTION ( 'NONE',  ( -3.491481338843133355E-15, 0.0000000000000000000, -1.000000000000000000 ) ) ;
#214 = PERSON_AND_ORGANIZATION_ROLE ( 'creator' ) ;
#215 = DATE_TIME_ROLE ( 'classification_date' ) ;
#216 = DATE_AND_TIME ( #162, #173 ) ;
#217 = CC_DESIGN_APPROVAL ( #39, ( #165 ) ) ;
#218 = EDGE_LOOP ( 'NONE', ( #17 ) ) ;
#219 = DIRECTION ( 'NONE',  ( -3.491481338843133355E-15, 0.0000000000000000000, -1.000000000000000000 ) ) ;
#220 = ORIENTED_EDGE ( 'NONE', *, *, #92, .T. ) ;
#221 = AXIS2_PLACEMENT_3D ( 'NONE', #222, #84, #223 ) ;
#222 = CARTESIAN_POINT ( 'NONE',  ( 0.0000000000000000000, 0.0000000000000000000, 0.0000000000000000000 ) ) ;
#223 = DIRECTION ( 'NONE',  ( 1.000000000000000000, 0.0000000000000000000, -3.491481338843133355E-15 ) ) ;
#224 = APPROVAL_STATUS ( 'not_yet_approved' ) ;
#225 = MANIFOLD_SOLID_BREP ( 'Corps-Déplacer/Copier1[2]', #204 ) ;
#226 = FACE_OUTER_BOUND ( 'NONE', #183, .T. ) ;
#227 = CIRCLE ( 'NONE', #31, 0.05000000000000012768 ) ;
#228 = DIRECTION ( 'NONE',  ( 3.491481338843133355E-15, -0.0000000000000000000, 1.000000000000000000 ) ) ;
#229 = TOROIDAL_SURFACE ( 'NONE', #184, 2.050000000000000266, 2.000000000000000000 ) ;
#230 = CARTESIAN_POINT ( 'NONE',  ( 1.326762908760390423E-13, 0.0000000000000000000, 38.00000000000000000 ) ) ;
#231 = COORDINATED_UNIVERSAL_TIME_OFFSET ( 1, 0, .AHEAD. ) ;
#232 = EDGE_CURVE ( 'NONE', #44, #44, #122, .T. ) ;
#233 = PERSON_AND_ORGANIZATION ( #63, #158 ) ;
#234 = AXIS2_PLACEMENT_3D ( 'NONE', #50, #88, #172 ) ;
#235 = APPROVAL_PERSON_ORGANIZATION ( #233, #39, #179 ) ;
#236 = CC_DESIGN_PERSON_AND_ORGANIZATION_ASSIGNMENT ( #11, #106, ( #110 ) ) ;
#237 = EDGE_LOOP ( 'NONE', ( #38 ) ) ;
#238 = CIRCLE ( 'NONE', #135, 2.000000000000000000 ) ;
#239 = AXIS2_PLACEMENT_3D ( 'NONE', #7, #156, #99 ) ;
#240 = APPLICATION_CONTEXT ( 'configuration controlled 3d designs of mechanical parts and assemblies' ) ;
#241 = ADVANCED_FACE ( 'NONE', ( #148 ), #95, .T. ) ;
#242 = EDGE_LOOP ( 'NONE', ( #18 ) ) ;
#243 = APPLICATION_PROTOCOL_DEFINITION ( 'international standard', 'config_control_design', 1994, #240 ) ;
ENDSEC;
END-ISO-10303-21;
