ISO-10303-21;
HEADER;
FILE_DESCRIPTION (( 'STEP AP203' ),
    '1' );
FILE_NAME ('33482.step',
    '2021-12-06T12:58:47',
    ( '' ),
    ( '' ),
    'SwSTEP 2.0',
    'SolidWorks 2019',
    '' );
FILE_SCHEMA (( 'CONFIG_CONTROL_DESIGN' ));
ENDSEC;

DATA;
#1 = ORIENTED_EDGE ( 'NONE', *, *, #23, .T. ) ;
#2 = PRODUCT_DEFINITION ( 'UNKNOWN', '', #116, #101 ) ;
#3 = CARTESIAN_POINT ( 'NONE',  ( 1.396592535537253342E-14, 15.00000000000000000, 4.000000000000000000 ) ) ;
#4 = CARTESIAN_POINT ( 'NONE',  ( 0.0000000000000000000, 0.0000000000000000000, 0.0000000000000000000 ) ) ;
#5 = EDGE_LOOP ( 'NONE', ( #162 ) ) ;
#6 = DIRECTION ( 'NONE',  ( -3.491481338843133355E-15, 3.673940397442060115E-17, -1.000000000000000000 ) ) ;
#7 = DIRECTION ( 'NONE',  ( 1.282749433769087670E-31, 1.000000000000000000, 3.673940397442060115E-17 ) ) ;
#8 =( GEOMETRIC_REPRESENTATION_CONTEXT ( 3 ) GLOBAL_UNCERTAINTY_ASSIGNED_CONTEXT ( ( #106 ) ) GLOBAL_UNIT_ASSIGNED_CONTEXT ( ( #17, #134, #84 ) ) REPRESENTATION_CONTEXT ( 'NONE', 'WORKASPACE' ) );
#9 = ADVANCED_FACE ( 'NONE', ( #20, #16 ), #79, .T. ) ;
#10 = CC_DESIGN_SECURITY_CLASSIFICATION ( #133, ( #116 ) ) ;
#11 = APPROVAL_STATUS ( 'not_yet_approved' ) ;
#12 = DIRECTION ( 'NONE',  ( 2.054325274013051723E-31, 1.000000000000000000, 5.782411586589357392E-17 ) ) ;
#13 = ORGANIZATION ( 'UNSPECIFIED', 'UNSPECIFIED', '' ) ;
#14 = CARTESIAN_POINT ( 'NONE',  ( -5.130997735076351554E-31, 5.399135217582689167E-33, -1.469576158976824046E-16 ) ) ;
#15 = FACE_OUTER_BOUND ( 'NONE', #50, .T. ) ;
#16 = FACE_OUTER_BOUND ( 'NONE', #152, .T. ) ;
#17 =( LENGTH_UNIT ( ) NAMED_UNIT ( * ) SI_UNIT ( .MILLI., .METRE. ) );
#18 = ORIENTED_EDGE ( 'NONE', *, *, #69, .T. ) ;
#19 = LOCAL_TIME ( 13, 58, 47.00000000000000000, #49 ) ;
#20 = FACE_BOUND ( 'NONE', #151, .T. ) ;
#21 = FACE_OUTER_BOUND ( 'NONE', #87, .T. ) ;
#22 = DATE_AND_TIME ( #117, #40 ) ;
#23 = EDGE_CURVE ( 'NONE', #109, #109, #56, .T. ) ;
#24 = PERSON_AND_ORGANIZATION ( #156, #13 ) ;
#25 = VERTEX_POINT ( 'NONE', #3 ) ;
#26 = ADVANCED_FACE ( 'NONE', ( #93, #15 ), #75, .T. ) ;
#27 = FACE_OUTER_BOUND ( 'NONE', #135, .T. ) ;
#28 = CALENDAR_DATE ( 2021, 6, 12 ) ;
#29 = ORIENTED_EDGE ( 'NONE', *, *, #23, .F. ) ;
#30 = DIRECTION ( 'NONE',  ( 1.282749433769087670E-31, 1.000000000000000000, 3.673940397442060115E-17 ) ) ;
#31 = EDGE_LOOP ( 'NONE', ( #18 ) ) ;
#32 = CC_DESIGN_APPROVAL ( #165, ( #133 ) ) ;
#33 = DIRECTION ( 'NONE',  ( -3.491481338843133355E-15, 3.673940397442060115E-17, -1.000000000000000000 ) ) ;
#34 = PRODUCT ( '33482', '33482', '', ( #72 ) ) ;
#35 = APPROVAL_ROLE ( '' ) ;
#36 = CIRCLE ( 'NONE', #81, 15.00000000000000000 ) ;
#37 = CIRCLE ( 'NONE', #48, 15.00000000000000000 ) ;
#38 = CIRCLE ( 'NONE', #160, 4.000000000000000000 ) ;
#39 = APPROVAL ( #168, 'UNSPECIFIED' ) ;
#40 = LOCAL_TIME ( 13, 58, 47.00000000000000000, #82 ) ;
#41 = EDGE_CURVE ( 'NONE', #25, #25, #36, .T. ) ;
#42 = CALENDAR_DATE ( 2021, 6, 12 ) ;
#43 = APPLICATION_PROTOCOL_DEFINITION ( 'international standard', 'config_control_design', 1994, #111 ) ;
#44 = DIRECTION ( 'NONE',  ( 1.282749433769087670E-31, 1.000000000000000000, 3.673940397442059498E-17 ) ) ;
#45 = APPROVAL ( #11, 'UNSPECIFIED' ) ;
#46 = CARTESIAN_POINT ( 'NONE',  ( 1.396592535537253027E-14, 4.000000000000000000, 3.999999999999999112 ) ) ;
#47 = PERSON_AND_ORGANIZATION ( #156, #13 ) ;
#48 = AXIS2_PLACEMENT_3D ( 'NONE', #123, #108, #44 ) ;
#49 = COORDINATED_UNIVERSAL_TIME_OFFSET ( 1, 0, .AHEAD. ) ;
#50 = EDGE_LOOP ( 'NONE', ( #98 ) ) ;
#51 = DIRECTION ( 'NONE',  ( 0.0000000000000000000, 1.000000000000000000, 0.0000000000000000000 ) ) ;
#52 = PERSON_AND_ORGANIZATION_ROLE ( 'creator' ) ;
#53 = CC_DESIGN_PERSON_AND_ORGANIZATION_ASSIGNMENT ( #141, #63, ( #133 ) ) ;
#54 = APPROVAL_STATUS ( 'not_yet_approved' ) ;
#55 = PRODUCT_DEFINITION_SHAPE ( 'NONE', 'NONE',  #2 ) ;
#56 = CIRCLE ( 'NONE', #67, 4.000000000000000000 ) ;
#57 = DATE_TIME_ROLE ( 'creation_date' ) ;
#58 = DATE_AND_TIME ( #28, #77 ) ;
#59 = CARTESIAN_POINT ( 'NONE',  ( 1.396592535537253027E-14, -1.469576158976823553E-16, 3.999999999999999112 ) ) ;
#60 = CARTESIAN_POINT ( 'NONE',  ( 1.396592535537253342E-14, 4.000000000000000000, 4.000000000000000000 ) ) ;
#61 = APPROVAL_PERSON_ORGANIZATION ( #161, #39, #145 ) ;
#62 = DIRECTION ( 'NONE',  ( 0.0000000000000000000, 0.0000000000000000000, 1.000000000000000000 ) ) ;
#63 = PERSON_AND_ORGANIZATION_ROLE ( 'classification_officer' ) ;
#64 = CARTESIAN_POINT ( 'NONE',  ( 0.0000000000000000000, 0.0000000000000000000, 0.0000000000000000000 ) ) ;
#65 = COORDINATED_UNIVERSAL_TIME_OFFSET ( 1, 0, .AHEAD. ) ;
#66 = CYLINDRICAL_SURFACE ( 'NONE', #143, 4.000000000000000000 ) ;
#67 = AXIS2_PLACEMENT_3D ( 'NONE', #110, #6, #51 ) ;
#68 = CC_DESIGN_PERSON_AND_ORGANIZATION_ASSIGNMENT ( #47, #112, ( #34 ) ) ;
#69 = EDGE_CURVE ( 'NONE', #76, #76, #37, .T. ) ;
#70 = CC_DESIGN_DATE_AND_TIME_ASSIGNMENT ( #22, #166, ( #133 ) ) ;
#71 = APPROVAL_ROLE ( '' ) ;
#72 = MECHANICAL_CONTEXT ( 'NONE', #111, 'mechanical' ) ;
#73 = ORIENTED_EDGE ( 'NONE', *, *, #155, .T. ) ;
#74 = DIRECTION ( 'NONE',  ( -3.491481338843133355E-15, 3.673940397442060115E-17, -1.000000000000000000 ) ) ;
#75 = CYLINDRICAL_SURFACE ( 'NONE', #131, 15.00000000000000000 ) ;
#76 = VERTEX_POINT ( 'NONE', #113 ) ;
#77 = LOCAL_TIME ( 13, 58, 47.00000000000000000, #149 ) ;
#78 = PERSON_AND_ORGANIZATION ( #156, #13 ) ;
#79 = PLANE ( 'NONE',  #132 ) ;
#80 = DIRECTION ( 'NONE',  ( -3.491481338843133355E-15, 3.673940397442060115E-17, -1.000000000000000000 ) ) ;
#81 = AXIS2_PLACEMENT_3D ( 'NONE', #59, #33, #12 ) ;
#82 = COORDINATED_UNIVERSAL_TIME_OFFSET ( 1, 0, .AHEAD. ) ;
#83 = CLOSED_SHELL ( 'NONE', ( #128, #26, #9, #103 ) ) ;
#84 =( NAMED_UNIT ( * ) SI_UNIT ( $, .STERADIAN. ) SOLID_ANGLE_UNIT ( ) );
#85 = DIRECTION ( 'NONE',  ( 3.491481338843133355E-15, -3.673940397442060115E-17, 1.000000000000000000 ) ) ;
#86 = PERSON_AND_ORGANIZATION ( #156, #13 ) ;
#87 = EDGE_LOOP ( 'NONE', ( #29 ) ) ;
#88 = APPROVAL_DATE_TIME ( #153, #165 ) ;
#89 = CALENDAR_DATE ( 2021, 6, 12 ) ;
#90 = AXIS2_PLACEMENT_3D ( 'NONE', #4, #62, #158 ) ;
#91 = DATE_AND_TIME ( #42, #167 ) ;
#92 = DIRECTION ( 'NONE',  ( -3.491481338843133355E-15, 3.673940397442060115E-17, -1.000000000000000000 ) ) ;
#93 = FACE_OUTER_BOUND ( 'NONE', #5, .T. ) ;
#94 = EDGE_LOOP ( 'NONE', ( #114 ) ) ;
#95 = APPLICATION_PROTOCOL_DEFINITION ( 'international standard', 'config_control_design', 1994, #96 ) ;
#96 = APPLICATION_CONTEXT ( 'configuration controlled 3d designs of mechanical parts and assemblies' ) ;
#97 = CALENDAR_DATE ( 2021, 6, 12 ) ;
#98 = ORIENTED_EDGE ( 'NONE', *, *, #69, .F. ) ;
#99 = CC_DESIGN_PERSON_AND_ORGANIZATION_ASSIGNMENT ( #78, #127, ( #116 ) ) ;
#100 = DIRECTION ( 'NONE',  ( -1.282749433769087670E-31, -1.000000000000000000, -3.673940397442060115E-17 ) ) ;
#101 = DESIGN_CONTEXT ( 'detailed design', #96, 'design' ) ;
#102 = CC_DESIGN_APPROVAL ( #45, ( #116 ) ) ;
#103 = ADVANCED_FACE ( 'NONE', ( #27, #21 ), #66, .F. ) ;
#104 = CC_DESIGN_PERSON_AND_ORGANIZATION_ASSIGNMENT ( #24, #52, ( #116 ) ) ;
#105 = CC_DESIGN_DATE_AND_TIME_ASSIGNMENT ( #150, #57, ( #2 ) ) ;
#106 = UNCERTAINTY_MEASURE_WITH_UNIT (LENGTH_MEASURE( 1.000000000000000082E-05 ), #17, 'distance_accuracy_value', 'NONE');
#107 = CARTESIAN_POINT ( 'NONE',  ( -8.552847072295026068E-47, 4.000000000000000000, 0.0000000000000000000 ) ) ;
#108 = DIRECTION ( 'NONE',  ( -3.491481338843133355E-15, 3.673940397442060115E-17, -1.000000000000000000 ) ) ;
#109 = VERTEX_POINT ( 'NONE', #46 ) ;
#110 = CARTESIAN_POINT ( 'NONE',  ( 1.396592535537253027E-14, -1.469576158976823553E-16, 3.999999999999999112 ) ) ;
#111 = APPLICATION_CONTEXT ( 'configuration controlled 3d designs of mechanical parts and assemblies' ) ;
#112 = PERSON_AND_ORGANIZATION_ROLE ( 'design_owner' ) ;
#113 = CARTESIAN_POINT ( 'NONE',  ( 0.0000000000000000000, 15.00000000000000000, 0.0000000000000000000 ) ) ;
#114 = ORIENTED_EDGE ( 'NONE', *, *, #155, .F. ) ;
#115 = DIRECTION ( 'NONE',  ( -3.491481338843133355E-15, 3.673940397442060115E-17, -1.000000000000000000 ) ) ;
#116 = PRODUCT_DEFINITION_FORMATION_WITH_SPECIFIED_SOURCE ( 'ANY', '', #34, .NOT_KNOWN. ) ;
#117 = CALENDAR_DATE ( 2021, 6, 12 ) ;
#118 = ADVANCED_BREP_SHAPE_REPRESENTATION ( '33482', ( #154, #90 ), #8 ) ;
#119 = APPROVAL_PERSON_ORGANIZATION ( #140, #165, #35 ) ;
#120 = SECURITY_CLASSIFICATION_LEVEL ( 'unclassified' ) ;
#121 = COORDINATED_UNIVERSAL_TIME_OFFSET ( 1, 0, .AHEAD. ) ;
#122 = APPROVAL_PERSON_ORGANIZATION ( #157, #45, #71 ) ;
#123 = CARTESIAN_POINT ( 'NONE',  ( -1.924124150653631636E-30, 2.024675706593508318E-32, -5.510910596163089556E-16 ) ) ;
#124 = CARTESIAN_POINT ( 'NONE',  ( -7.055121885729981964E-31, 4.000000000000000000, -2.020667218593133001E-16 ) ) ;
#125 = PLANE ( 'NONE',  #126 ) ;
#126 = AXIS2_PLACEMENT_3D ( 'NONE', #124, #92, #137 ) ;
#127 = PERSON_AND_ORGANIZATION_ROLE ( 'design_supplier' ) ;
#128 = ADVANCED_FACE ( 'NONE', ( #139, #159 ), #125, .T. ) ;
#129 = CARTESIAN_POINT ( 'NONE',  ( 0.0000000000000000000, 0.0000000000000000000, 0.0000000000000000000 ) ) ;
#130 = CC_DESIGN_APPROVAL ( #39, ( #2 ) ) ;
#131 = AXIS2_PLACEMENT_3D ( 'NONE', #64, #115, #164 ) ;
#132 = AXIS2_PLACEMENT_3D ( 'NONE', #60, #85, #100 ) ;
#133 = SECURITY_CLASSIFICATION ( '', '', #120 ) ;
#134 =( NAMED_UNIT ( * ) PLANE_ANGLE_UNIT ( ) SI_UNIT ( $, .RADIAN. ) );
#135 = EDGE_LOOP ( 'NONE', ( #73 ) ) ;
#136 = PRODUCT_RELATED_PRODUCT_CATEGORY ( 'detail', '', ( #34 ) ) ;
#137 = DIRECTION ( 'NONE',  ( 1.282749433769087670E-31, 1.000000000000000000, 3.673940397442060115E-17 ) ) ;
#138 = LOCAL_TIME ( 13, 58, 47.00000000000000000, #65 ) ;
#139 = FACE_OUTER_BOUND ( 'NONE', #31, .T. ) ;
#140 = PERSON_AND_ORGANIZATION ( #156, #13 ) ;
#141 = PERSON_AND_ORGANIZATION ( #156, #13 ) ;
#142 = SHAPE_DEFINITION_REPRESENTATION ( #55, #118 ) ;
#143 = AXIS2_PLACEMENT_3D ( 'NONE', #129, #80, #7 ) ;
#144 = APPROVAL_DATE_TIME ( #91, #45 ) ;
#145 = APPROVAL_ROLE ( '' ) ;
#146 = ORIENTED_EDGE ( 'NONE', *, *, #41, .F. ) ;
#147 = VERTEX_POINT ( 'NONE', #107 ) ;
#148 = CC_DESIGN_PERSON_AND_ORGANIZATION_ASSIGNMENT ( #86, #163, ( #2 ) ) ;
#149 = COORDINATED_UNIVERSAL_TIME_OFFSET ( 1, 0, .AHEAD. ) ;
#150 = DATE_AND_TIME ( #97, #19 ) ;
#151 = EDGE_LOOP ( 'NONE', ( #1 ) ) ;
#152 = EDGE_LOOP ( 'NONE', ( #146 ) ) ;
#153 = DATE_AND_TIME ( #89, #138 ) ;
#154 = MANIFOLD_SOLID_BREP ( 'Corps-Déplacer/Copier1', #83 ) ;
#155 = EDGE_CURVE ( 'NONE', #147, #147, #38, .T. ) ;
#156 = PERSON ( 'UNSPECIFIED', 'UNSPECIFIED', 'UNSPECIFIED', ('UNSPECIFIED'), ('UNSPECIFIED'), ('UNSPECIFIED') ) ;
#157 = PERSON_AND_ORGANIZATION ( #156, #13 ) ;
#158 = DIRECTION ( 'NONE',  ( 1.000000000000000000, 0.0000000000000000000, 0.0000000000000000000 ) ) ;
#159 = FACE_BOUND ( 'NONE', #94, .T. ) ;
#160 = AXIS2_PLACEMENT_3D ( 'NONE', #14, #74, #30 ) ;
#161 = PERSON_AND_ORGANIZATION ( #156, #13 ) ;
#162 = ORIENTED_EDGE ( 'NONE', *, *, #41, .T. ) ;
#163 = PERSON_AND_ORGANIZATION_ROLE ( 'creator' ) ;
#164 = DIRECTION ( 'NONE',  ( 1.282749433769087670E-31, 1.000000000000000000, 3.673940397442059498E-17 ) ) ;
#165 = APPROVAL ( #54, 'UNSPECIFIED' ) ;
#166 = DATE_TIME_ROLE ( 'classification_date' ) ;
#167 = LOCAL_TIME ( 13, 58, 47.00000000000000000, #121 ) ;
#168 = APPROVAL_STATUS ( 'not_yet_approved' ) ;
#169 = APPROVAL_DATE_TIME ( #58, #39 ) ;
ENDSEC;
END-ISO-10303-21;
