ISO-10303-21;
HEADER;
FILE_DESCRIPTION (( 'STEP AP203' ),
    '1' );
FILE_NAME ('334534.step',
    '2021-11-01T09:16:00',
    ( '' ),
    ( '' ),
    'SwSTEP 2.0',
    'SolidWorks 2019',
    '' );
FILE_SCHEMA (( 'CONFIG_CONTROL_DESIGN' ));
ENDSEC;

DATA;
#1 = CONICAL_SURFACE ( 'NONE', #243, 2.499999999999994671, 0.2617993877991429685 ) ;
#2 = CC_DESIGN_PERSON_AND_ORGANIZATION_ASSIGNMENT ( #180, #88, ( #183 ) ) ;
#3 = PERSON_AND_ORGANIZATION ( #85, #30 ) ;
#4 = PERSON_AND_ORGANIZATION ( #85, #30 ) ;
#5 = CC_DESIGN_APPROVAL ( #36, ( #84 ) ) ;
#6 = PERSON_AND_ORGANIZATION ( #85, #30 ) ;
#7 = EDGE_CURVE ( 'NONE', #224, #224, #147, .T. ) ;
#8 = CARTESIAN_POINT ( 'NONE',  ( 1.326762908760390423E-13, 8.998558695971044381E-33, 38.00000000000000000 ) ) ;
#9 = PERSON_AND_ORGANIZATION ( #85, #30 ) ;
#10 = VERTEX_POINT ( 'NONE', #202 ) ;
#11 = AXIS2_PLACEMENT_3D ( 'NONE', #89, #166, #233 ) ;
#12 = PRODUCT_DEFINITION_FORMATION_WITH_SPECIFIED_SOURCE ( 'ANY', '', #91, .NOT_KNOWN. ) ;
#13 = FACE_OUTER_BOUND ( 'NONE', #172, .T. ) ;
#14 = EDGE_LOOP ( 'NONE', ( #74 ) ) ;
#15 = FACE_OUTER_BOUND ( 'NONE', #223, .T. ) ;
#16 =( NAMED_UNIT ( * ) PLANE_ANGLE_UNIT ( ) SI_UNIT ( $, .RADIAN. ) );
#17 = AXIS2_PLACEMENT_3D ( 'NONE', #97, #189, #54 ) ;
#18 = PRODUCT_RELATED_PRODUCT_CATEGORY ( 'detail', '', ( #91 ) ) ;
#19 = FACE_OUTER_BOUND ( 'NONE', #225, .T. ) ;
#20 = CC_DESIGN_DATE_AND_TIME_ASSIGNMENT ( #216, #31, ( #84 ) ) ;
#21 = DIRECTION ( 'NONE',  ( 3.491481338843133355E-15, -1.219242935835426903E-16, 1.000000000000000000 ) ) ;
#22 = MANIFOLD_SOLID_BREP ( 'Corps-Déplacer/Copier1[2]', #152 ) ;
#23 = FACE_OUTER_BOUND ( 'NONE', #203, .T. ) ;
#24 = FACE_OUTER_BOUND ( 'NONE', #237, .T. ) ;
#25 = AXIS2_PLACEMENT_3D ( 'NONE', #176, #156, #143 ) ;
#26 = ADVANCED_FACE ( 'NONE', ( #101 ), #174, .F. ) ;
#27 = SECURITY_CLASSIFICATION_LEVEL ( 'unclassified' ) ;
#28 = CYLINDRICAL_SURFACE ( 'NONE', #59, 0.04999999999999971134 ) ;
#29 = AXIS2_PLACEMENT_3D ( 'NONE', #8, #211, #236 ) ;
#30 = ORGANIZATION ( 'UNSPECIFIED', 'UNSPECIFIED', '' ) ;
#31 = DATE_TIME_ROLE ( 'creation_date' ) ;
#32 = DIRECTION ( 'NONE',  ( 0.0000000000000000000, 1.000000000000000000, 0.0000000000000000000 ) ) ;
#33 = COORDINATED_UNIVERSAL_TIME_OFFSET ( 1, 0, .AHEAD. ) ;
#34 = PLANE ( 'NONE',  #17 ) ;
#35 = CALENDAR_DATE ( 2021, 1, 11 ) ;
#36 = APPROVAL ( #48, 'UNSPECIFIED' ) ;
#37 = VERTEX_POINT ( 'NONE', #94 ) ;
#38 = ORIENTED_EDGE ( 'NONE', *, *, #128, .F. ) ;
#39 = VERTEX_POINT ( 'NONE', #139 ) ;
#40 = CC_DESIGN_PERSON_AND_ORGANIZATION_ASSIGNMENT ( #9, #133, ( #84 ) ) ;
#41 = APPROVAL_PERSON_ORGANIZATION ( #3, #110, #162 ) ;
#42 = CARTESIAN_POINT ( 'NONE',  ( 1.326762908760390423E-13, -4.653657836759941941E-15, 38.00000000000000000 ) ) ;
#43 = DIRECTION ( 'NONE',  ( 3.491481338843133355E-15, -1.219242935835426903E-16, 1.000000000000000000 ) ) ;
#44 = CC_DESIGN_APPROVAL ( #110, ( #183 ) ) ;
#45 = DATE_AND_TIME ( #234, #164 ) ;
#46 = PERSON_AND_ORGANIZATION_ROLE ( 'design_supplier' ) ;
#47 = CALENDAR_DATE ( 2021, 1, 11 ) ;
#48 = APPROVAL_STATUS ( 'not_yet_approved' ) ;
#49 = PRODUCT_DEFINITION_SHAPE ( 'NONE', 'NONE',  #84 ) ;
#50 = PERSON_AND_ORGANIZATION ( #85, #30 ) ;
#51 = VERTEX_POINT ( 'NONE', #134 ) ;
#52 = EDGE_LOOP ( 'NONE', ( #190 ) ) ;
#53 = DIRECTION ( 'NONE',  ( 0.0000000000000000000, 1.000000000000000000, 0.0000000000000000000 ) ) ;
#54 = DIRECTION ( 'NONE',  ( -4.275831445896958607E-31, -1.000000000000000000, -1.224646799147353207E-16 ) ) ;
#55 = ORIENTED_EDGE ( 'NONE', *, *, #151, .F. ) ;
#56 = EDGE_LOOP ( 'NONE', ( #38 ) ) ;
#57 = AXIS2_PLACEMENT_3D ( 'NONE', #159, #83, #157 ) ;
#58 = AXIS2_PLACEMENT_3D ( 'NONE', #171, #187, #76 ) ;
#59 = AXIS2_PLACEMENT_3D ( 'NONE', #199, #217, #215 ) ;
#60 = APPROVAL_PERSON_ORGANIZATION ( #197, #36, #132 ) ;
#61 = EDGE_CURVE ( 'NONE', #137, #137, #235, .T. ) ;
#62 = DIRECTION ( 'NONE',  ( 3.491481338843133355E-15, -1.224646799147353207E-16, 1.000000000000000000 ) ) ;
#63 = APPROVAL_DATE_TIME ( #106, #110 ) ;
#64 = CARTESIAN_POINT ( 'NONE',  ( 0.0000000000000000000, 0.0000000000000000000, 0.0000000000000000000 ) ) ;
#65 = APPLICATION_CONTEXT ( 'configuration controlled 3d designs of mechanical parts and assemblies' ) ;
#66 = UNCERTAINTY_MEASURE_WITH_UNIT (LENGTH_MEASURE( 1.000000000000000082E-05 ), #73, 'distance_accuracy_value', 'NONE');
#67 = PERSON_AND_ORGANIZATION_ROLE ( 'design_owner' ) ;
#68 = APPROVAL ( #167, 'UNSPECIFIED' ) ;
#69 = CC_DESIGN_SECURITY_CLASSIFICATION ( #183, ( #12 ) ) ;
#70 = CARTESIAN_POINT ( 'NONE',  ( 2.068625414963784232E-14, -7.223744535091553704E-16, 5.924778666149772555 ) ) ;
#71 = APPROVAL_DATE_TIME ( #45, #68 ) ;
#72 = FACE_OUTER_BOUND ( 'NONE', #113, .T. ) ;
#73 =( LENGTH_UNIT ( ) NAMED_UNIT ( * ) SI_UNIT ( .MILLI., .METRE. ) );
#74 = ORIENTED_EDGE ( 'NONE', *, *, #61, .T. ) ;
#75 = ADVANCED_FACE ( 'NONE', ( #19, #24 ), #160, .F. ) ;
#76 = DIRECTION ( 'NONE',  ( 4.275831445896958607E-31, 1.000000000000000000, 1.224646799147353207E-16 ) ) ;
#77 = AXIS2_PLACEMENT_3D ( 'NONE', #192, #21, #227 ) ;
#78 = LOCAL_TIME ( 10, 16, 0.0000000000000000000, #184 ) ;
#79 = FACE_OUTER_BOUND ( 'NONE', #240, .T. ) ;
#80 = ORIENTED_EDGE ( 'NONE', *, *, #87, .T. ) ;
#81 = CARTESIAN_POINT ( 'NONE',  ( 8.728703347107837333E-16, 1.124819836996386774E-32, 0.2500000000000001110 ) ) ;
#82 = AXIS2_PLACEMENT_3D ( 'NONE', #161, #229, #32 ) ;
#83 = DIRECTION ( 'NONE',  ( 3.491481338843133355E-15, -1.219242935835426903E-16, 1.000000000000000000 ) ) ;
#84 = PRODUCT_DEFINITION ( 'UNKNOWN', '', #12, #127 ) ;
#85 = PERSON ( 'UNSPECIFIED', 'UNSPECIFIED', 'UNSPECIFIED', ('UNSPECIFIED'), ('UNSPECIFIED'), ('UNSPECIFIED') ) ;
#86 = APPROVAL_STATUS ( 'not_yet_approved' ) ;
#87 = EDGE_CURVE ( 'NONE', #150, #150, #182, .T. ) ;
#88 = PERSON_AND_ORGANIZATION_ROLE ( 'classification_officer' ) ;
#89 = CARTESIAN_POINT ( 'NONE',  ( 8.728703347107837333E-16, 1.124819836996386774E-32, 0.2500000000000001110 ) ) ;
#90 = COORDINATED_UNIVERSAL_TIME_OFFSET ( 1, 0, .AHEAD. ) ;
#91 = PRODUCT ( '334534', '334534', '', ( #105 ) ) ;
#92 =( NAMED_UNIT ( * ) SI_UNIT ( $, .STERADIAN. ) SOLID_ANGLE_UNIT ( ) );
#93 = CLOSED_SHELL ( 'NONE', ( #238, #154, #178, #218, #75, #26 ) ) ;
#94 = CARTESIAN_POINT ( 'NONE',  ( 1.316288464743861212E-13, 1.499999999999991340, 37.69999999999999574 ) ) ;
#95 = ORIENTED_EDGE ( 'NONE', *, *, #195, .F. ) ;
#96 = CYLINDRICAL_SURFACE ( 'NONE', #58, 1.499999999999993561 ) ;
#97 = CARTESIAN_POINT ( 'NONE',  ( -1.068955699180124799E-30, 3.749391872347842254E-32, -3.061610804811898009E-16 ) ) ;
#98 = AXIS2_PLACEMENT_3D ( 'NONE', #81, #62, #191 ) ;
#99 = FACE_OUTER_BOUND ( 'NONE', #207, .T. ) ;
#100 = ORIENTED_EDGE ( 'NONE', *, *, #128, .T. ) ;
#101 = FACE_OUTER_BOUND ( 'NONE', #56, .T. ) ;
#102 = DIRECTION ( 'NONE',  ( 0.0000000000000000000, -1.000000000000000000, 0.0000000000000000000 ) ) ;
#103 = FACE_BOUND ( 'NONE', #138, .T. ) ;
#104 =( GEOMETRIC_REPRESENTATION_CONTEXT ( 3 ) GLOBAL_UNCERTAINTY_ASSIGNED_CONTEXT ( ( #66 ) ) GLOBAL_UNIT_ASSIGNED_CONTEXT ( ( #73, #16, #92 ) ) REPRESENTATION_CONTEXT ( 'NONE', 'WORKASPACE' ) );
#105 = MECHANICAL_CONTEXT ( 'NONE', #65, 'mechanical' ) ;
#106 = DATE_AND_TIME ( #231, #179 ) ;
#107 = CIRCLE ( 'NONE', #115, 1.499999999999993561 ) ;
#108 = MANIFOLD_SOLID_BREP ( 'Corps-Déplacer/Copier1[1]', #93 ) ;
#109 = DATE_AND_TIME ( #35, #219 ) ;
#110 = APPROVAL ( #86, 'UNSPECIFIED' ) ;
#111 = COORDINATED_UNIVERSAL_TIME_OFFSET ( 1, 0, .AHEAD. ) ;
#112 = DIRECTION ( 'NONE',  ( 3.491481338843133355E-15, -1.219242935835426903E-16, 1.000000000000000000 ) ) ;
#113 = EDGE_LOOP ( 'NONE', ( #169 ) ) ;
#114 = CARTESIAN_POINT ( 'NONE',  ( 1.316288464743861212E-13, -4.616918432785521081E-15, 37.69999999999999574 ) ) ;
#115 = AXIS2_PLACEMENT_3D ( 'NONE', #70, #210, #123 ) ;
#116 = ORIENTED_EDGE ( 'NONE', *, *, #61, .F. ) ;
#117 = ORIENTED_EDGE ( 'NONE', *, *, #135, .T. ) ;
#118 = DIRECTION ( 'NONE',  ( 0.0000000000000000000, -1.000000000000000000, 0.0000000000000000000 ) ) ;
#119 = LOCAL_TIME ( 10, 16, 0.0000000000000000000, #90 ) ;
#120 = DIRECTION ( 'NONE',  ( 3.491481338843133355E-15, -1.219242935835426903E-16, 1.000000000000000000 ) ) ;
#121 = DIRECTION ( 'NONE',  ( -3.491481338843133355E-15, 1.224646799147353207E-16, -1.000000000000000000 ) ) ;
#122 = DIRECTION ( 'NONE',  ( 0.0000000000000000000, -1.000000000000000000, 0.0000000000000000000 ) ) ;
#123 = DIRECTION ( 'NONE',  ( 0.0000000000000000000, -1.000000000000000000, 0.0000000000000000000 ) ) ;
#124 = CIRCLE ( 'NONE', #77, 0.04999999999999972522 ) ;
#125 = SHAPE_DEFINITION_REPRESENTATION ( #49, #185 ) ;
#126 = FACE_OUTER_BOUND ( 'NONE', #52, .T. ) ;
#127 = DESIGN_CONTEXT ( 'detailed design', #141, 'design' ) ;
#128 = EDGE_CURVE ( 'NONE', #39, #39, #124, .T. ) ;
#129 = APPLICATION_PROTOCOL_DEFINITION ( 'international standard', 'config_control_design', 1994, #141 ) ;
#130 = FACE_OUTER_BOUND ( 'NONE', #140, .T. ) ;
#131 = PLANE ( 'NONE',  #11 ) ;
#132 = APPROVAL_ROLE ( '' ) ;
#133 = PERSON_AND_ORGANIZATION_ROLE ( 'creator' ) ;
#134 = CARTESIAN_POINT ( 'NONE',  ( 8.728703347107841277E-16, -0.04999999999999975298, 0.2500000000000002220 ) ) ;
#135 = EDGE_CURVE ( 'NONE', #51, #51, #209, .T. ) ;
#136 = ORIENTED_EDGE ( 'NONE', *, *, #195, .T. ) ;
#137 = VERTEX_POINT ( 'NONE', #205 ) ;
#138 = EDGE_LOOP ( 'NONE', ( #80 ) ) ;
#139 = CARTESIAN_POINT ( 'NONE',  ( 8.728703347107841277E-16, -0.04999999999999975298, 0.2500000000000002220 ) ) ;
#140 = EDGE_LOOP ( 'NONE', ( #170 ) ) ;
#141 = APPLICATION_CONTEXT ( 'configuration controlled 3d designs of mechanical parts and assemblies' ) ;
#142 = CARTESIAN_POINT ( 'NONE',  ( 8.728703347107841277E-16, -3.048107339588570338E-17, 0.2500000000000002220 ) ) ;
#143 = DIRECTION ( 'NONE',  ( -4.256963957985697503E-31, -1.000000000000000000, -1.219242935835421233E-16 ) ) ;
#144 = FACE_OUTER_BOUND ( 'NONE', #204, .T. ) ;
#145 = DIRECTION ( 'NONE',  ( 0.0000000000000000000, 0.0000000000000000000, 1.000000000000000000 ) ) ;
#146 = ADVANCED_FACE ( 'NONE', ( #23 ), #131, .T. ) ;
#147 = CIRCLE ( 'NONE', #25, 0.04999999999999969746 ) ;
#148 = AXIS2_PLACEMENT_3D ( 'NONE', #64, #145, #194 ) ;
#149 = DATE_AND_TIME ( #47, #78 ) ;
#150 = VERTEX_POINT ( 'NONE', #221 ) ;
#151 = EDGE_CURVE ( 'NONE', #10, #10, #107, .T. ) ;
#152 = CLOSED_SHELL ( 'NONE', ( #146, #173, #214 ) ) ;
#153 = CARTESIAN_POINT ( 'NONE',  ( 3.371663989987938274E-14, -1.177402111839893201E-15, 9.656829473718751444 ) ) ;
#154 = ADVANCED_FACE ( 'NONE', ( #99, #103 ), #186, .T. ) ;
#155 = APPROVAL_PERSON_ORGANIZATION ( #201, #68, #181 ) ;
#156 = DIRECTION ( 'NONE',  ( 3.491481338843133355E-15, -1.219242935835426903E-16, 1.000000000000000000 ) ) ;
#157 = DIRECTION ( 'NONE',  ( -4.330728664661429214E-31, -1.000000000000000000, -1.219242935835426903E-16 ) ) ;
#158 = CC_DESIGN_PERSON_AND_ORGANIZATION_ASSIGNMENT ( #50, #67, ( #91 ) ) ;
#159 = CARTESIAN_POINT ( 'NONE',  ( 8.728703347107831416E-16, 0.0000000000000000000, 0.2499999999999999445 ) ) ;
#160 = TOROIDAL_SURFACE ( 'NONE', #57, 2.049999999999999822, 2.000000000000000000 ) ;
#161 = CARTESIAN_POINT ( 'NONE',  ( 1.326762908760390423E-13, -4.653657836759941941E-15, 38.00000000000000000 ) ) ;
#162 = APPROVAL_ROLE ( '' ) ;
#163 = DATE_TIME_ROLE ( 'classification_date' ) ;
#164 = LOCAL_TIME ( 10, 16, 0.0000000000000000000, #33 ) ;
#165 = CALENDAR_DATE ( 2021, 1, 11 ) ;
#166 = DIRECTION ( 'NONE',  ( 3.491481338843133355E-15, -1.224646799147353207E-16, 1.000000000000000000 ) ) ;
#167 = APPROVAL_STATUS ( 'not_yet_approved' ) ;
#168 = AXIS2_PLACEMENT_3D ( 'NONE', #208, #120, #102 ) ;
#169 = ORIENTED_EDGE ( 'NONE', *, *, #151, .T. ) ;
#170 = ORIENTED_EDGE ( 'NONE', *, *, #87, .F. ) ;
#171 = CARTESIAN_POINT ( 'NONE',  ( 0.0000000000000000000, 0.0000000000000000000, 0.0000000000000000000 ) ) ;
#172 = EDGE_LOOP ( 'NONE', ( #136 ) ) ;
#173 = ADVANCED_FACE ( 'NONE', ( #126, #144 ), #28, .T. ) ;
#174 = PLANE ( 'NONE',  #98 ) ;
#175 = CC_DESIGN_DATE_AND_TIME_ASSIGNMENT ( #149, #163, ( #183 ) ) ;
#176 = CARTESIAN_POINT ( 'NONE',  ( -2.800570935034718049E-30, 9.779735297048676964E-32, -8.021153955136585415E-16 ) ) ;
#177 = DIRECTION ( 'NONE',  ( 0.0000000000000000000, 1.000000000000000000, 0.0000000000000000000 ) ) ;
#178 = ADVANCED_FACE ( 'NONE', ( #130 ), #196, .F. ) ;
#179 = LOCAL_TIME ( 10, 16, 0.0000000000000000000, #230 ) ;
#180 = PERSON_AND_ORGANIZATION ( #85, #30 ) ;
#181 = APPROVAL_ROLE ( '' ) ;
#182 = CIRCLE ( 'NONE', #241, 1.199999999999995515 ) ;
#183 = SECURITY_CLASSIFICATION ( '', '', #27 ) ;
#184 = COORDINATED_UNIVERSAL_TIME_OFFSET ( 1, 0, .AHEAD. ) ;
#185 = ADVANCED_BREP_SHAPE_REPRESENTATION ( '334534', ( #108, #22, #148 ), #104 ) ;
#186 = CONICAL_SURFACE ( 'NONE', #82, 1.199999999999995515, 0.7853981633974461696 ) ;
#187 = DIRECTION ( 'NONE',  ( -3.491481338843133355E-15, 1.224646799147353207E-16, -1.000000000000000000 ) ) ;
#188 = ORIENTED_EDGE ( 'NONE', *, *, #7, .F. ) ;
#189 = DIRECTION ( 'NONE',  ( 3.491481338843133355E-15, -1.224646799147353207E-16, 1.000000000000000000 ) ) ;
#190 = ORIENTED_EDGE ( 'NONE', *, *, #7, .T. ) ;
#191 = DIRECTION ( 'NONE',  ( -4.275831445896958607E-31, -1.000000000000000000, -1.224646799147353207E-16 ) ) ;
#192 = CARTESIAN_POINT ( 'NONE',  ( 8.728703347107841277E-16, -3.048107339588570338E-17, 0.2500000000000002220 ) ) ;
#193 = AXIS2_PLACEMENT_3D ( 'NONE', #142, #43, #122 ) ;
#194 = DIRECTION ( 'NONE',  ( 1.000000000000000000, 0.0000000000000000000, 0.0000000000000000000 ) ) ;
#195 = EDGE_CURVE ( 'NONE', #37, #37, #198, .T. ) ;
#196 = PLANE ( 'NONE',  #29 ) ;
#197 = PERSON_AND_ORGANIZATION ( #85, #30 ) ;
#198 = CIRCLE ( 'NONE', #228, 1.499999999999996003 ) ;
#199 = CARTESIAN_POINT ( 'NONE',  ( 0.0000000000000000000, 0.0000000000000000000, 0.0000000000000000000 ) ) ;
#200 = APPROVAL_DATE_TIME ( #109, #36 ) ;
#201 = PERSON_AND_ORGANIZATION ( #85, #30 ) ;
#202 = CARTESIAN_POINT ( 'NONE',  ( 2.068625414963784232E-14, -1.499999999999994227, 5.924778666149772555 ) ) ;
#203 = EDGE_LOOP ( 'NONE', ( #117 ) ) ;
#204 = EDGE_LOOP ( 'NONE', ( #222 ) ) ;
#205 = CARTESIAN_POINT ( 'NONE',  ( 2.680194066936033803E-15, -0.1181483474218594787, 0.7676380902050271571 ) ) ;
#206 = CARTESIAN_POINT ( 'NONE',  ( -2.821855754824646125E-30, -0.04999999999999969746, -8.082116101928356464E-16 ) ) ;
#207 = EDGE_LOOP ( 'NONE', ( #95 ) ) ;
#208 = CARTESIAN_POINT ( 'NONE',  ( 2.680194066936033803E-15, -9.359373187606774973E-17, 0.7676380902050271571 ) ) ;
#209 = CIRCLE ( 'NONE', #193, 0.04999999999999972522 ) ;
#210 = DIRECTION ( 'NONE',  ( -3.491481338843133355E-15, 1.219242935835426903E-16, -1.000000000000000000 ) ) ;
#211 = DIRECTION ( 'NONE',  ( -3.491481338843133355E-15, 1.224646799147353207E-16, -1.000000000000000000 ) ) ;
#212 = CC_DESIGN_APPROVAL ( #68, ( #12 ) ) ;
#213 = PERSON_AND_ORGANIZATION_ROLE ( 'creator' ) ;
#214 = ADVANCED_FACE ( 'NONE', ( #79 ), #34, .F. ) ;
#215 = DIRECTION ( 'NONE',  ( -4.256963957985708889E-31, -1.000000000000000000, -1.219242935835426903E-16 ) ) ;
#216 = DATE_AND_TIME ( #165, #119 ) ;
#217 = DIRECTION ( 'NONE',  ( 3.491481338843133355E-15, -1.219242935835426903E-16, 1.000000000000000000 ) ) ;
#218 = ADVANCED_FACE ( 'NONE', ( #242, #72 ), #1, .T. ) ;
#219 = LOCAL_TIME ( 10, 16, 0.0000000000000000000, #111 ) ;
#220 = APPLICATION_PROTOCOL_DEFINITION ( 'international standard', 'config_control_design', 1994, #65 ) ;
#221 = CARTESIAN_POINT ( 'NONE',  ( 1.326762908760390423E-13, 1.199999999999991074, 38.00000000000000000 ) ) ;
#222 = ORIENTED_EDGE ( 'NONE', *, *, #135, .F. ) ;
#223 = EDGE_LOOP ( 'NONE', ( #55 ) ) ;
#224 = VERTEX_POINT ( 'NONE', #206 ) ;
#225 = EDGE_LOOP ( 'NONE', ( #100 ) ) ;
#226 = CC_DESIGN_PERSON_AND_ORGANIZATION_ASSIGNMENT ( #4, #213, ( #12 ) ) ;
#227 = DIRECTION ( 'NONE',  ( 0.0000000000000000000, -1.000000000000000000, 0.0000000000000000000 ) ) ;
#228 = AXIS2_PLACEMENT_3D ( 'NONE', #114, #239, #53 ) ;
#229 = DIRECTION ( 'NONE',  ( -3.491481338843133355E-15, 1.224646799147353207E-16, -1.000000000000000000 ) ) ;
#230 = COORDINATED_UNIVERSAL_TIME_OFFSET ( 1, 0, .AHEAD. ) ;
#231 = CALENDAR_DATE ( 2021, 1, 11 ) ;
#232 = CC_DESIGN_PERSON_AND_ORGANIZATION_ASSIGNMENT ( #6, #46, ( #12 ) ) ;
#233 = DIRECTION ( 'NONE',  ( -4.275831445896958607E-31, -1.000000000000000000, -1.224646799147353207E-16 ) ) ;
#234 = CALENDAR_DATE ( 2021, 1, 11 ) ;
#235 = CIRCLE ( 'NONE', #168, 0.1181483474218593815 ) ;
#236 = DIRECTION ( 'NONE',  ( 4.275831445896958607E-31, 1.000000000000000000, 1.224646799147353207E-16 ) ) ;
#237 = EDGE_LOOP ( 'NONE', ( #116 ) ) ;
#238 = ADVANCED_FACE ( 'NONE', ( #13, #15 ), #96, .T. ) ;
#239 = DIRECTION ( 'NONE',  ( -3.491481338843133355E-15, 1.224646799147353207E-16, -1.000000000000000000 ) ) ;
#240 = EDGE_LOOP ( 'NONE', ( #188 ) ) ;
#241 = AXIS2_PLACEMENT_3D ( 'NONE', #42, #121, #177 ) ;
#242 = FACE_BOUND ( 'NONE', #14, .T. ) ;
#243 = AXIS2_PLACEMENT_3D ( 'NONE', #153, #112, #118 ) ;
ENDSEC;
END-ISO-10303-21;
