ISO-10303-21;
HEADER;
FILE_DESCRIPTION (( 'STEP AP203' ),
    '1' );
FILE_NAME ('33427.step',
    '2021-10-15T13:34:41',
    ( '' ),
    ( '' ),
    'SwSTEP 2.0',
    'SolidWorks 2019',
    '' );
FILE_SCHEMA (( 'CONFIG_CONTROL_DESIGN' ));
ENDSEC;

DATA;
#1 = PERSON_AND_ORGANIZATION ( #85, #99 ) ;
#2 = CIRCLE ( 'NONE', #169, 2.200000000000000622 ) ;
#3 = APPROVAL_ROLE ( '' ) ;
#4 = AXIS2_PLACEMENT_3D ( 'NONE', #148, #151, #108 ) ;
#5 = CARTESIAN_POINT ( 'NONE',  ( 2.025059176529017346E-13, -7.102951435054648059E-15, 58.00000000000000000 ) ) ;
#6 = DIRECTION ( 'NONE',  ( -3.491481338843133355E-15, 1.224646799147353207E-16, -1.000000000000000000 ) ) ;
#7 = PRODUCT ( '33427', '33427', '', ( #105 ) ) ;
#8 = DIRECTION ( 'NONE',  ( 0.0000000000000000000, 1.000000000000000000, 0.0000000000000000000 ) ) ;
#9 = AXIS2_PLACEMENT_3D ( 'NONE', #57, #179, #42 ) ;
#10 = VERTEX_POINT ( 'NONE', #116 ) ;
#11 = CARTESIAN_POINT ( 'NONE',  ( 2.795749617836609503E-15, 2.199999999999993516, 0.8007345153856536557 ) ) ;
#12 = PRODUCT_RELATED_PRODUCT_CATEGORY ( 'detail', '', ( #7 ) ) ;
#13 = CLOSED_SHELL ( 'NONE', ( #135, #187, #29, #107 ) ) ;
#14 = APPROVAL_DATE_TIME ( #157, #19 ) ;
#15 = CC_DESIGN_APPROVAL ( #101, ( #120 ) ) ;
#16 = APPLICATION_PROTOCOL_DEFINITION ( 'international standard', 'config_control_design', 1994, #52 ) ;
#17 = CALENDAR_DATE ( 2021, 15, 10 ) ;
#18 = CC_DESIGN_APPROVAL ( #19, ( #38 ) ) ;
#19 = APPROVAL ( #102, 'UNSPECIFIED' ) ;
#20 = ORIENTED_EDGE ( 'NONE', *, *, #174, .F. ) ;
#21 = CC_DESIGN_DATE_AND_TIME_ASSIGNMENT ( #73, #50, ( #38 ) ) ;
#22 = DESIGN_CONTEXT ( 'detailed design', #52, 'design' ) ;
#23 = VERTEX_POINT ( 'NONE', #154 ) ;
#24 = ORIENTED_EDGE ( 'NONE', *, *, #195, .F. ) ;
#25 = DIRECTION ( 'NONE',  ( 0.0000000000000000000, 1.000000000000000000, 0.0000000000000000000 ) ) ;
#26 = FACE_OUTER_BOUND ( 'NONE', #58, .T. ) ;
#27 = DIRECTION ( 'NONE',  ( 3.491481338843133355E-15, -1.224646799147353207E-16, 1.000000000000000000 ) ) ;
#28 = CLOSED_SHELL ( 'NONE', ( #94, #75, #63 ) ) ;
#29 = ADVANCED_FACE ( 'NONE', ( #26, #82 ), #167, .T. ) ;
#30 = CYLINDRICAL_SURFACE ( 'NONE', #9, 2.199999999999998845 ) ;
#31 = EDGE_CURVE ( 'NONE', #162, #162, #186, .T. ) ;
#32 = APPROVAL_ROLE ( '' ) ;
#33 = CARTESIAN_POINT ( 'NONE',  ( 0.0000000000000000000, 0.0000000000000000000, 0.0000000000000000000 ) ) ;
#34 = LOCAL_TIME ( 15, 34, 41.00000000000000000, #203 ) ;
#35 = CC_DESIGN_PERSON_AND_ORGANIZATION_ASSIGNMENT ( #184, #155, ( #38 ) ) ;
#36 = CC_DESIGN_PERSON_AND_ORGANIZATION_ASSIGNMENT ( #90, #89, ( #7 ) ) ;
#37 = PERSON_AND_ORGANIZATION_ROLE ( 'design_supplier' ) ;
#38 = SECURITY_CLASSIFICATION ( '', '', #185 ) ;
#39 = EDGE_LOOP ( 'NONE', ( #177 ) ) ;
#40 = CARTESIAN_POINT ( 'NONE',  ( 8.379555213223520053E-14, -2.939152317953647894E-15, 24.00000000000000000 ) ) ;
#41 = AXIS2_PLACEMENT_3D ( 'NONE', #61, #165, #86 ) ;
#42 = DIRECTION ( 'NONE',  ( 4.275831445896958607E-31, 1.000000000000000000, 1.224646799147353207E-16 ) ) ;
#43 = UNCERTAINTY_MEASURE_WITH_UNIT (LENGTH_MEASURE( 1.000000000000000082E-05 ), #91, 'distance_accuracy_value', 'NONE');
#44 = EDGE_LOOP ( 'NONE', ( #53 ) ) ;
#45 = APPLICATION_PROTOCOL_DEFINITION ( 'international standard', 'config_control_design', 1994, #144 ) ;
#46 = CARTESIAN_POINT ( 'NONE',  ( 0.0000000000000000000, 0.0000000000000000000, 0.0000000000000000000 ) ) ;
#47 = APPROVAL ( #79, 'UNSPECIFIED' ) ;
#48 = DIRECTION ( 'NONE',  ( -4.275831445896958607E-31, -1.000000000000000000, -1.224646799147353207E-16 ) ) ;
#49 = VERTEX_POINT ( 'NONE', #191 ) ;
#50 = DATE_TIME_ROLE ( 'classification_date' ) ;
#51 = PERSON_AND_ORGANIZATION ( #85, #99 ) ;
#52 = APPLICATION_CONTEXT ( 'configuration controlled 3d designs of mechanical parts and assemblies' ) ;
#53 = ORIENTED_EDGE ( 'NONE', *, *, #195, .T. ) ;
#54 = AXIS2_PLACEMENT_3D ( 'NONE', #40, #95, #59 ) ;
#55 = FACE_OUTER_BOUND ( 'NONE', #109, .T. ) ;
#56 = CIRCLE ( 'NONE', #124, 2.199999999999996625 ) ;
#57 = CARTESIAN_POINT ( 'NONE',  ( 0.0000000000000000000, 0.0000000000000000000, 0.0000000000000000000 ) ) ;
#58 = EDGE_LOOP ( 'NONE', ( #20 ) ) ;
#59 = DIRECTION ( 'NONE',  ( 0.0000000000000000000, 1.000000000000000000, 0.0000000000000000000 ) ) ;
#60 = FACE_OUTER_BOUND ( 'NONE', #194, .T. ) ;
#61 = CARTESIAN_POINT ( 'NONE',  ( 2.795749617836608714E-15, -9.806169612338474343E-17, 0.8007345153856534337 ) ) ;
#62 = PERSON_AND_ORGANIZATION ( #85, #99 ) ;
#63 = ADVANCED_FACE ( 'NONE', ( #172 ), #133, .T. ) ;
#64 = PERSON_AND_ORGANIZATION ( #85, #99 ) ;
#65 = CIRCLE ( 'NONE', #54, 2.199999999999996625 ) ;
#66 = APPROVAL_STATUS ( 'not_yet_approved' ) ;
#67 = CALENDAR_DATE ( 2021, 15, 10 ) ;
#68 = CC_DESIGN_PERSON_AND_ORGANIZATION_ASSIGNMENT ( #170, #37, ( #120 ) ) ;
#69 = FACE_OUTER_BOUND ( 'NONE', #81, .T. ) ;
#70 = CARTESIAN_POINT ( 'NONE',  ( 2.025059176529017346E-13, -7.102951435054648059E-15, 58.00000000000000000 ) ) ;
#71 = MANIFOLD_SOLID_BREP ( 'Corps-Déplacer/Copier1[1]', #13 ) ;
#72 =( NAMED_UNIT ( * ) PLANE_ANGLE_UNIT ( ) SI_UNIT ( $, .RADIAN. ) );
#73 = DATE_AND_TIME ( #201, #127 ) ;
#74 = CIRCLE ( 'NONE', #152, 1.700000000000000844 ) ;
#75 = ADVANCED_FACE ( 'NONE', ( #60, #117 ), #132, .T. ) ;
#76 = DIRECTION ( 'NONE',  ( 0.0000000000000000000, 0.0000000000000000000, 1.000000000000000000 ) ) ;
#77 = PERSON_AND_ORGANIZATION_ROLE ( 'creator' ) ;
#78 = AXIS2_PLACEMENT_3D ( 'NONE', #33, #76, #88 ) ;
#79 = APPROVAL_STATUS ( 'not_yet_approved' ) ;
#80 = COORDINATED_UNIVERSAL_TIME_OFFSET ( 1, 0, .AHEAD. ) ;
#81 = EDGE_LOOP ( 'NONE', ( #192 ) ) ;
#82 = FACE_BOUND ( 'NONE', #92, .T. ) ;
#83 = DIRECTION ( 'NONE',  ( -3.491481338843133355E-15, 1.224646799147353207E-16, -1.000000000000000000 ) ) ;
#84 = DIRECTION ( 'NONE',  ( -3.491481338843133355E-15, 1.224646799147353207E-16, -1.000000000000000000 ) ) ;
#85 = PERSON ( 'UNSPECIFIED', 'UNSPECIFIED', 'UNSPECIFIED', ('UNSPECIFIED'), ('UNSPECIFIED'), ('UNSPECIFIED') ) ;
#86 = DIRECTION ( 'NONE',  ( -3.501690807976802651E-31, -1.000000000000000000, -9.856383386231887177E-17 ) ) ;
#87 =( NAMED_UNIT ( * ) SI_UNIT ( $, .STERADIAN. ) SOLID_ANGLE_UNIT ( ) );
#88 = DIRECTION ( 'NONE',  ( 1.000000000000000000, 0.0000000000000000000, 0.0000000000000000000 ) ) ;
#89 = PERSON_AND_ORGANIZATION_ROLE ( 'design_owner' ) ;
#90 = PERSON_AND_ORGANIZATION ( #85, #99 ) ;
#91 =( LENGTH_UNIT ( ) NAMED_UNIT ( * ) SI_UNIT ( .MILLI., .METRE. ) );
#92 = EDGE_LOOP ( 'NONE', ( #190 ) ) ;
#93 = AXIS2_PLACEMENT_3D ( 'NONE', #46, #175, #128 ) ;
#94 = ADVANCED_FACE ( 'NONE', ( #55 ), #138, .T. ) ;
#95 = DIRECTION ( 'NONE',  ( -3.491481338843133355E-15, 1.224646799147353207E-16, -1.000000000000000000 ) ) ;
#96 = DIRECTION ( 'NONE',  ( 0.0000000000000000000, 1.000000000000000000, 0.0000000000000000000 ) ) ;
#97 = ADVANCED_BREP_SHAPE_REPRESENTATION ( '33427', ( #71, #137, #78 ), #176 ) ;
#98 = DIRECTION ( 'NONE',  ( -3.491481338843133355E-15, 1.224646799147353207E-16, -1.000000000000000000 ) ) ;
#99 = ORGANIZATION ( 'UNSPECIFIED', 'UNSPECIFIED', '' ) ;
#100 = COORDINATED_UNIVERSAL_TIME_OFFSET ( 1, 0, .AHEAD. ) ;
#101 = APPROVAL ( #66, 'UNSPECIFIED' ) ;
#102 = APPROVAL_STATUS ( 'not_yet_approved' ) ;
#103 = LOCAL_TIME ( 15, 34, 41.00000000000000000, #100 ) ;
#104 = APPROVAL_PERSON_ORGANIZATION ( #1, #101, #3 ) ;
#105 = MECHANICAL_CONTEXT ( 'NONE', #144, 'mechanical' ) ;
#106 = PERSON_AND_ORGANIZATION_ROLE ( 'creator' ) ;
#107 = ADVANCED_FACE ( 'NONE', ( #130 ), #146, .F. ) ;
#108 = DIRECTION ( 'NONE',  ( 3.501690807976802651E-31, 1.000000000000000000, 9.856383386231887177E-17 ) ) ;
#109 = EDGE_LOOP ( 'NONE', ( #161 ) ) ;
#110 = VERTEX_POINT ( 'NONE', #181 ) ;
#111 = PRODUCT_DEFINITION ( 'UNKNOWN', '', #120, #22 ) ;
#112 = FACE_OUTER_BOUND ( 'NONE', #173, .T. ) ;
#113 = ORIENTED_EDGE ( 'NONE', *, *, #168, .F. ) ;
#114 = LOCAL_TIME ( 15, 34, 41.00000000000000000, #80 ) ;
#115 = FACE_OUTER_BOUND ( 'NONE', #129, .T. ) ;
#116 = CARTESIAN_POINT ( 'NONE',  ( 2.007601769834801742E-13, 2.199999999999993516, 57.50000000000000000 ) ) ;
#117 = FACE_OUTER_BOUND ( 'NONE', #44, .T. ) ;
#118 = CARTESIAN_POINT ( 'NONE',  ( 8.379555213223520053E-14, 1.649735760928036253E-32, 24.00000000000000000 ) ) ;
#119 = CC_DESIGN_PERSON_AND_ORGANIZATION_ASSIGNMENT ( #51, #106, ( #120 ) ) ;
#120 = PRODUCT_DEFINITION_FORMATION_WITH_SPECIFIED_SOURCE ( 'ANY', '', #7, .NOT_KNOWN. ) ;
#121 = CALENDAR_DATE ( 2021, 15, 10 ) ;
#122 = CC_DESIGN_APPROVAL ( #47, ( #111 ) ) ;
#123 = CALENDAR_DATE ( 2021, 15, 10 ) ;
#124 = AXIS2_PLACEMENT_3D ( 'NONE', #198, #193, #25 ) ;
#125 = DATE_AND_TIME ( #67, #134 ) ;
#126 = COORDINATED_UNIVERSAL_TIME_OFFSET ( 1, 0, .AHEAD. ) ;
#127 = LOCAL_TIME ( 15, 34, 41.00000000000000000, #136 ) ;
#128 = DIRECTION ( 'NONE',  ( 4.275831445896958607E-31, 1.000000000000000000, 1.224646799147353207E-16 ) ) ;
#129 = EDGE_LOOP ( 'NONE', ( #113 ) ) ;
#130 = FACE_OUTER_BOUND ( 'NONE', #39, .T. ) ;
#131 = CC_DESIGN_SECURITY_CLASSIFICATION ( #38, ( #120 ) ) ;
#132 = CYLINDRICAL_SURFACE ( 'NONE', #93, 2.199999999999995293 ) ;
#133 = PLANE ( 'NONE',  #142 ) ;
#134 = LOCAL_TIME ( 15, 34, 41.00000000000000000, #126 ) ;
#135 = ADVANCED_FACE ( 'NONE', ( #69 ), #160, .F. ) ;
#136 = COORDINATED_UNIVERSAL_TIME_OFFSET ( 1, 0, .AHEAD. ) ;
#137 = MANIFOLD_SOLID_BREP ( 'Corps-Déplacer/Copier1[2]', #28 ) ;
#138 = CONICAL_SURFACE ( 'NONE', #41, 2.199999999999993516, 1.221730476396026388 ) ;
#139 = CC_DESIGN_DATE_AND_TIME_ASSIGNMENT ( #188, #141, ( #111 ) ) ;
#140 = PERSON_AND_ORGANIZATION ( #85, #99 ) ;
#141 = DATE_TIME_ROLE ( 'creation_date' ) ;
#142 = AXIS2_PLACEMENT_3D ( 'NONE', #182, #199, #48 ) ;
#143 = APPROVAL_DATE_TIME ( #159, #47 ) ;
#144 = APPLICATION_CONTEXT ( 'configuration controlled 3d designs of mechanical parts and assemblies' ) ;
#145 = ORIENTED_EDGE ( 'NONE', *, *, #174, .T. ) ;
#146 = PLANE ( 'NONE',  #171 ) ;
#147 = PRODUCT_DEFINITION_SHAPE ( 'NONE', 'NONE',  #111 ) ;
#148 = CARTESIAN_POINT ( 'NONE',  ( 2.795749617836608714E-15, -9.806169612338474343E-17, 0.8007345153856534337 ) ) ;
#149 = CARTESIAN_POINT ( 'NONE',  ( 2.007601769834801742E-13, -7.041719095097280485E-15, 57.50000000000000000 ) ) ;
#150 = APPROVAL_PERSON_ORGANIZATION ( #140, #47, #158 ) ;
#151 = DIRECTION ( 'NONE',  ( -3.491481338843133355E-15, 1.224646799147353207E-16, -1.000000000000000000 ) ) ;
#152 = AXIS2_PLACEMENT_3D ( 'NONE', #70, #84, #8 ) ;
#153 = DIRECTION ( 'NONE',  ( -4.275831445896958607E-31, -1.000000000000000000, -1.224646799147353207E-16 ) ) ;
#154 = CARTESIAN_POINT ( 'NONE',  ( 8.379555213223520053E-14, 2.199999999999993516, 24.00000000000000000 ) ) ;
#155 = PERSON_AND_ORGANIZATION_ROLE ( 'classification_officer' ) ;
#156 = AXIS2_PLACEMENT_3D ( 'NONE', #118, #27, #153 ) ;
#157 = DATE_AND_TIME ( #121, #103 ) ;
#158 = APPROVAL_ROLE ( '' ) ;
#159 = DATE_AND_TIME ( #17, #114 ) ;
#160 = PLANE ( 'NONE',  #156 ) ;
#161 = ORIENTED_EDGE ( 'NONE', *, *, #31, .T. ) ;
#162 = VERTEX_POINT ( 'NONE', #11 ) ;
#163 = DIRECTION ( 'NONE',  ( 4.275831445896958607E-31, 1.000000000000000000, 1.224646799147353207E-16 ) ) ;
#164 = ORIENTED_EDGE ( 'NONE', *, *, #31, .F. ) ;
#165 = DIRECTION ( 'NONE',  ( 3.491481338843133355E-15, -1.224646799147353207E-16, 1.000000000000000000 ) ) ;
#166 = SHAPE_DEFINITION_REPRESENTATION ( #147, #97 ) ;
#167 = CONICAL_SURFACE ( 'NONE', #200, 1.700000000000000844, 0.7853981633974476129 ) ;
#168 = EDGE_CURVE ( 'NONE', #49, #49, #56, .T. ) ;
#169 = AXIS2_PLACEMENT_3D ( 'NONE', #149, #6, #196 ) ;
#170 = PERSON_AND_ORGANIZATION ( #85, #99 ) ;
#171 = AXIS2_PLACEMENT_3D ( 'NONE', #183, #98, #163 ) ;
#172 = FACE_OUTER_BOUND ( 'NONE', #180, .T. ) ;
#173 = EDGE_LOOP ( 'NONE', ( #145 ) ) ;
#174 = EDGE_CURVE ( 'NONE', #10, #10, #2, .T. ) ;
#175 = DIRECTION ( 'NONE',  ( -3.491481338843133355E-15, 1.224646799147353207E-16, -1.000000000000000000 ) ) ;
#176 =( GEOMETRIC_REPRESENTATION_CONTEXT ( 3 ) GLOBAL_UNCERTAINTY_ASSIGNED_CONTEXT ( ( #43 ) ) GLOBAL_UNIT_ASSIGNED_CONTEXT ( ( #91, #72, #87 ) ) REPRESENTATION_CONTEXT ( 'NONE', 'WORKASPACE' ) );
#177 = ORIENTED_EDGE ( 'NONE', *, *, #202, .F. ) ;
#178 = CC_DESIGN_PERSON_AND_ORGANIZATION_ASSIGNMENT ( #64, #77, ( #111 ) ) ;
#179 = DIRECTION ( 'NONE',  ( -3.491481338843133355E-15, 1.224646799147353207E-16, -1.000000000000000000 ) ) ;
#180 = EDGE_LOOP ( 'NONE', ( #24 ) ) ;
#181 = CARTESIAN_POINT ( 'NONE',  ( 2.025059176529017346E-13, 1.699999999999993516, 58.00000000000000000 ) ) ;
#182 = CARTESIAN_POINT ( 'NONE',  ( 8.379555213223520053E-14, 1.649735760928036253E-32, 24.00000000000000000 ) ) ;
#183 = CARTESIAN_POINT ( 'NONE',  ( 2.025059176529017346E-13, 1.274795815262568566E-32, 58.00000000000000000 ) ) ;
#184 = PERSON_AND_ORGANIZATION ( #85, #99 ) ;
#185 = SECURITY_CLASSIFICATION_LEVEL ( 'unclassified' ) ;
#186 = CIRCLE ( 'NONE', #4, 2.199999999999993516 ) ;
#187 = ADVANCED_FACE ( 'NONE', ( #115, #112 ), #30, .T. ) ;
#188 = DATE_AND_TIME ( #123, #34 ) ;
#189 = APPROVAL_DATE_TIME ( #125, #101 ) ;
#190 = ORIENTED_EDGE ( 'NONE', *, *, #202, .T. ) ;
#191 = CARTESIAN_POINT ( 'NONE',  ( 8.379555213223520053E-14, 2.199999999999993516, 24.00000000000000000 ) ) ;
#192 = ORIENTED_EDGE ( 'NONE', *, *, #168, .T. ) ;
#193 = DIRECTION ( 'NONE',  ( -3.491481338843133355E-15, 1.224646799147353207E-16, -1.000000000000000000 ) ) ;
#194 = EDGE_LOOP ( 'NONE', ( #164 ) ) ;
#195 = EDGE_CURVE ( 'NONE', #23, #23, #65, .T. ) ;
#196 = DIRECTION ( 'NONE',  ( 0.0000000000000000000, 1.000000000000000000, 0.0000000000000000000 ) ) ;
#197 = APPROVAL_PERSON_ORGANIZATION ( #62, #19, #32 ) ;
#198 = CARTESIAN_POINT ( 'NONE',  ( 8.379555213223520053E-14, -2.939152317953647894E-15, 24.00000000000000000 ) ) ;
#199 = DIRECTION ( 'NONE',  ( 3.491481338843133355E-15, -1.224646799147353207E-16, 1.000000000000000000 ) ) ;
#200 = AXIS2_PLACEMENT_3D ( 'NONE', #5, #83, #96 ) ;
#201 = CALENDAR_DATE ( 2021, 15, 10 ) ;
#202 = EDGE_CURVE ( 'NONE', #110, #110, #74, .T. ) ;
#203 = COORDINATED_UNIVERSAL_TIME_OFFSET ( 1, 0, .AHEAD. ) ;
ENDSEC;
END-ISO-10303-21;
