ISO-10303-21;
HEADER;
FILE_DESCRIPTION (( 'STEP AP203' ),
    '1' );
FILE_NAME ('33271.step',
    '2021-10-15T13:34:40',
    ( '' ),
    ( '' ),
    'SwSTEP 2.0',
    'SolidWorks 2019',
    '' );
FILE_SCHEMA (( 'CONFIG_CONTROL_DESIGN' ));
ENDSEC;

DATA;
#1 = DIRECTION ( 'NONE',  ( 3.491481338843133355E-15, -1.224646799147353454E-16, 1.000000000000000000 ) ) ;
#2 = ORIENTED_EDGE ( 'NONE', *, *, #33, .T. ) ;
#3 = CC_DESIGN_PERSON_AND_ORGANIZATION_ASSIGNMENT ( #127, #145, ( #54 ) ) ;
#4 = DIRECTION ( 'NONE',  ( -3.491481338843133355E-15, 1.224646799147353454E-16, -1.000000000000000000 ) ) ;
#5 = ADVANCED_FACE ( 'NONE', ( #64 ), #186, .T. ) ;
#6 = CLOSED_SHELL ( 'NONE', ( #151, #94, #202, #87 ) ) ;
#7 = DIRECTION ( 'NONE',  ( 0.0000000000000000000, 1.000000000000000000, 0.0000000000000000000 ) ) ;
#8 = DATE_AND_TIME ( #74, #148 ) ;
#9 = DIRECTION ( 'NONE',  ( 0.0000000000000000000, 1.000000000000000000, 0.0000000000000000000 ) ) ;
#10 = APPROVAL_DATE_TIME ( #147, #200 ) ;
#11 = AXIS2_PLACEMENT_3D ( 'NONE', #176, #68, #116 ) ;
#12 = DIRECTION ( 'NONE',  ( 0.0000000000000000000, 1.000000000000000000, 0.0000000000000000000 ) ) ;
#13 = CALENDAR_DATE ( 2021, 15, 10 ) ;
#14 = ADVANCED_FACE ( 'NONE', ( #123, #49 ), #124, .T. ) ;
#15 = AXIS2_PLACEMENT_3D ( 'NONE', #165, #160, #44 ) ;
#16 = APPROVAL ( #25, 'UNSPECIFIED' ) ;
#17 = AXIS2_PLACEMENT_3D ( 'NONE', #71, #180, #134 ) ;
#18 = CONICAL_SURFACE ( 'NONE', #17, 1.699999999999991518, 1.221730476396026388 ) ;
#19 = EDGE_LOOP ( 'NONE', ( #157 ) ) ;
#20 = FACE_BOUND ( 'NONE', #34, .T. ) ;
#21 = DIRECTION ( 'NONE',  ( 4.275831445896959482E-31, 1.000000000000000000, 1.224646799147353454E-16 ) ) ;
#22 = AXIS2_PLACEMENT_3D ( 'NONE', #42, #175, #143 ) ;
#23 = MECHANICAL_CONTEXT ( 'NONE', #96, 'mechanical' ) ;
#24 = CARTESIAN_POINT ( 'NONE',  ( 6.982962677686266711E-14, 1.699999999999991518, 20.00000000000000000 ) ) ;
#25 = APPROVAL_STATUS ( 'not_yet_approved' ) ;
#26 =( LENGTH_UNIT ( ) NAMED_UNIT ( * ) SI_UNIT ( .MILLI., .METRE. ) );
#27 = PERSON_AND_ORGANIZATION ( #56, #137 ) ;
#28 = DIRECTION ( 'NONE',  ( 3.491481338843133355E-15, -1.224646799147353454E-16, 1.000000000000000000 ) ) ;
#29 = CC_DESIGN_PERSON_AND_ORGANIZATION_ASSIGNMENT ( #135, #132, ( #105 ) ) ;
#30 = CIRCLE ( 'NONE', #122, 1.699999999999993738 ) ;
#31 = APPROVAL_ROLE ( '' ) ;
#32 = DATE_TIME_ROLE ( 'classification_date' ) ;
#33 = EDGE_CURVE ( 'NONE', #146, #146, #107, .T. ) ;
#34 = EDGE_LOOP ( 'NONE', ( #2 ) ) ;
#35 = CC_DESIGN_PERSON_AND_ORGANIZATION_ASSIGNMENT ( #72, #177, ( #50 ) ) ;
#36 = ADVANCED_FACE ( 'NONE', ( #81 ), #18, .T. ) ;
#37 = VERTEX_POINT ( 'NONE', #97 ) ;
#38 = APPROVAL_STATUS ( 'not_yet_approved' ) ;
#39 = DIRECTION ( 'NONE',  ( 4.275831445896959482E-31, 1.000000000000000000, 1.224646799147353454E-16 ) ) ;
#40 = AXIS2_PLACEMENT_3D ( 'NONE', #163, #189, #39 ) ;
#41 = DATE_AND_TIME ( #104, #179 ) ;
#42 = CARTESIAN_POINT ( 'NONE',  ( 6.982962677686266711E-14, -2.449293598294706907E-15, 20.00000000000000000 ) ) ;
#43 = DATE_TIME_ROLE ( 'creation_date' ) ;
#44 = DIRECTION ( 'NONE',  ( 0.0000000000000000000, 1.000000000000000000, 0.0000000000000000000 ) ) ;
#45 = CONICAL_SURFACE ( 'NONE', #15, 1.299999999999997824, 0.7853981633974597143 ) ;
#46 = DATE_AND_TIME ( #76, #169 ) ;
#47 = ORIENTED_EDGE ( 'NONE', *, *, #108, .F. ) ;
#48 = ORIENTED_EDGE ( 'NONE', *, *, #61, .F. ) ;
#49 = FACE_OUTER_BOUND ( 'NONE', #113, .T. ) ;
#50 = PRODUCT ( '33271', '33271', '', ( #23 ) ) ;
#51 = DIRECTION ( 'NONE',  ( -3.491481338843133355E-15, 1.224646799147353454E-16, -1.000000000000000000 ) ) ;
#52 = AXIS2_PLACEMENT_3D ( 'NONE', #75, #126, #12 ) ;
#53 = CARTESIAN_POINT ( 'NONE',  ( 6.982962677686266711E-14, 1.274795815262571030E-32, 20.00000000000000000 ) ) ;
#54 = PRODUCT_DEFINITION ( 'UNKNOWN', '', #105, #130 ) ;
#55 = FACE_OUTER_BOUND ( 'NONE', #187, .T. ) ;
#56 = PERSON ( 'UNSPECIFIED', 'UNSPECIFIED', 'UNSPECIFIED', ('UNSPECIFIED'), ('UNSPECIFIED'), ('UNSPECIFIED') ) ;
#57 =( NAMED_UNIT ( * ) PLANE_ANGLE_UNIT ( ) SI_UNIT ( $, .RADIAN. ) );
#58 = COORDINATED_UNIVERSAL_TIME_OFFSET ( 1, 0, .AHEAD. ) ;
#59 = PERSON_AND_ORGANIZATION ( #56, #137 ) ;
#60 = APPLICATION_PROTOCOL_DEFINITION ( 'international standard', 'config_control_design', 1994, #96 ) ;
#61 = EDGE_CURVE ( 'NONE', #99, #99, #88, .T. ) ;
#62 = CIRCLE ( 'NONE', #153, 1.699999999999997513 ) ;
#63 = CC_DESIGN_DATE_AND_TIME_ASSIGNMENT ( #41, #43, ( #54 ) ) ;
#64 = FACE_OUTER_BOUND ( 'NONE', #140, .T. ) ;
#65 = DIRECTION ( 'NONE',  ( -4.275831445896959482E-31, -1.000000000000000000, -1.224646799147353454E-16 ) ) ;
#66 = EDGE_LOOP ( 'NONE', ( #111 ) ) ;
#67 = LOCAL_TIME ( 15, 34, 40.00000000000000000, #106 ) ;
#68 = DIRECTION ( 'NONE',  ( -3.491481338843133355E-15, 1.224646799147353454E-16, -1.000000000000000000 ) ) ;
#69 = FACE_OUTER_BOUND ( 'NONE', #77, .T. ) ;
#70 = COORDINATED_UNIVERSAL_TIME_OFFSET ( 1, 0, .AHEAD. ) ;
#71 = CARTESIAN_POINT ( 'NONE',  ( 2.160351977419193160E-15, -7.577494700443354211E-17, 0.6187493982525491543 ) ) ;
#72 = PERSON_AND_ORGANIZATION ( #56, #137 ) ;
#73 = CIRCLE ( 'NONE', #11, 1.699999999999991518 ) ;
#74 = CALENDAR_DATE ( 2021, 15, 10 ) ;
#75 = CARTESIAN_POINT ( 'NONE',  ( 1.815570296198429345E-13, -6.368163355566237959E-15, 52.00000000000000000 ) ) ;
#76 = CALENDAR_DATE ( 2021, 15, 10 ) ;
#77 = EDGE_LOOP ( 'NONE', ( #171 ) ) ;
#78 =( GEOMETRIC_REPRESENTATION_CONTEXT ( 3 ) GLOBAL_UNCERTAINTY_ASSIGNED_CONTEXT ( ( #162 ) ) GLOBAL_UNIT_ASSIGNED_CONTEXT ( ( #26, #57, #103 ) ) REPRESENTATION_CONTEXT ( 'NONE', 'WORKASPACE' ) );
#79 = PRODUCT_DEFINITION_SHAPE ( 'NONE', 'NONE',  #54 ) ;
#80 = EDGE_LOOP ( 'NONE', ( #109 ) ) ;
#81 = FACE_OUTER_BOUND ( 'NONE', #80, .T. ) ;
#82 = DIRECTION ( 'NONE',  ( -3.491481338843133355E-15, 1.224646799147353454E-16, -1.000000000000000000 ) ) ;
#83 = VERTEX_POINT ( 'NONE', #194 ) ;
#84 = CARTESIAN_POINT ( 'NONE',  ( 0.0000000000000000000, 0.0000000000000000000, 0.0000000000000000000 ) ) ;
#85 = CALENDAR_DATE ( 2021, 15, 10 ) ;
#86 = CARTESIAN_POINT ( 'NONE',  ( 6.982962677686266711E-14, -2.449293598294706907E-15, 20.00000000000000000 ) ) ;
#87 = ADVANCED_FACE ( 'NONE', ( #95 ), #141, .F. ) ;
#88 = CIRCLE ( 'NONE', #22, 1.699999999999993738 ) ;
#89 = SECURITY_CLASSIFICATION_LEVEL ( 'unclassified' ) ;
#90 = DATE_AND_TIME ( #13, #125 ) ;
#91 = SECURITY_CLASSIFICATION ( '', '', #89 ) ;
#92 = AXIS2_PLACEMENT_3D ( 'NONE', #131, #4, #21 ) ;
#93 = EDGE_LOOP ( 'NONE', ( #138 ) ) ;
#94 = ADVANCED_FACE ( 'NONE', ( #101, #159 ), #191, .T. ) ;
#95 = FACE_OUTER_BOUND ( 'NONE', #156, .T. ) ;
#96 = APPLICATION_CONTEXT ( 'configuration controlled 3d designs of mechanical parts and assemblies' ) ;
#97 = CARTESIAN_POINT ( 'NONE',  ( 1.801604370843057064E-13, 1.699999999999991296, 51.60000000000000853 ) ) ;
#98 = APPROVAL ( #120, 'UNSPECIFIED' ) ;
#99 = VERTEX_POINT ( 'NONE', #115 ) ;
#100 = AXIS2_PLACEMENT_3D ( 'NONE', #139, #1, #65 ) ;
#101 = FACE_OUTER_BOUND ( 'NONE', #93, .T. ) ;
#102 = COORDINATED_UNIVERSAL_TIME_OFFSET ( 1, 0, .AHEAD. ) ;
#103 =( NAMED_UNIT ( * ) SI_UNIT ( $, .STERADIAN. ) SOLID_ANGLE_UNIT ( ) );
#104 = CALENDAR_DATE ( 2021, 15, 10 ) ;
#105 = PRODUCT_DEFINITION_FORMATION_WITH_SPECIFIED_SOURCE ( 'ANY', '', #50, .NOT_KNOWN. ) ;
#106 = COORDINATED_UNIVERSAL_TIME_OFFSET ( 1, 0, .AHEAD. ) ;
#107 = CIRCLE ( 'NONE', #52, 1.299999999999997824 ) ;
#108 = EDGE_CURVE ( 'NONE', #37, #37, #62, .T. ) ;
#109 = ORIENTED_EDGE ( 'NONE', *, *, #197, .T. ) ;
#110 = AXIS2_PLACEMENT_3D ( 'NONE', #84, #164, #182 ) ;
#111 = ORIENTED_EDGE ( 'NONE', *, *, #197, .F. ) ;
#112 = ORIENTED_EDGE ( 'NONE', *, *, #61, .T. ) ;
#113 = EDGE_LOOP ( 'NONE', ( #112 ) ) ;
#114 = DIRECTION ( 'NONE',  ( -4.275831445896959482E-31, -1.000000000000000000, -1.224646799147353454E-16 ) ) ;
#115 = CARTESIAN_POINT ( 'NONE',  ( 6.982962677686266711E-14, 1.699999999999991518, 20.00000000000000000 ) ) ;
#116 = DIRECTION ( 'NONE',  ( 4.531599869146460175E-31, 1.000000000000000000, 1.275531967630011655E-16 ) ) ;
#117 = VERTEX_POINT ( 'NONE', #24 ) ;
#118 = APPROVAL_DATE_TIME ( #8, #16 ) ;
#119 = MANIFOLD_SOLID_BREP ( 'Corps-Déplacer/Copier1[2]', #185 ) ;
#120 = APPROVAL_STATUS ( 'not_yet_approved' ) ;
#121 = PRODUCT_RELATED_PRODUCT_CATEGORY ( 'detail', '', ( #50 ) ) ;
#122 = AXIS2_PLACEMENT_3D ( 'NONE', #86, #193, #9 ) ;
#123 = FACE_OUTER_BOUND ( 'NONE', #66, .T. ) ;
#124 = CYLINDRICAL_SURFACE ( 'NONE', #184, 1.699999999999992850 ) ;
#125 = LOCAL_TIME ( 15, 34, 40.00000000000000000, #102 ) ;
#126 = DIRECTION ( 'NONE',  ( -3.491481338843133355E-15, 1.224646799147353454E-16, -1.000000000000000000 ) ) ;
#127 = PERSON_AND_ORGANIZATION ( #56, #137 ) ;
#128 = CC_DESIGN_PERSON_AND_ORGANIZATION_ASSIGNMENT ( #149, #181, ( #91 ) ) ;
#129 = CARTESIAN_POINT ( 'NONE',  ( 1.801604370843057064E-13, -6.319177483600344531E-15, 51.60000000000000853 ) ) ;
#130 = DESIGN_CONTEXT ( 'detailed design', #152, 'design' ) ;
#131 = CARTESIAN_POINT ( 'NONE',  ( 1.815570296198429345E-13, 9.748438587301966343E-33, 52.00000000000000000 ) ) ;
#132 = PERSON_AND_ORGANIZATION_ROLE ( 'creator' ) ;
#133 = APPROVAL_PERSON_ORGANIZATION ( #168, #16, #198 ) ;
#134 = DIRECTION ( 'NONE',  ( -4.531599869146460175E-31, -1.000000000000000000, -1.275531967630011655E-16 ) ) ;
#135 = PERSON_AND_ORGANIZATION ( #56, #137 ) ;
#136 = SHAPE_DEFINITION_REPRESENTATION ( #79, #170 ) ;
#137 = ORGANIZATION ( 'UNSPECIFIED', 'UNSPECIFIED', '' ) ;
#138 = ORIENTED_EDGE ( 'NONE', *, *, #154, .F. ) ;
#139 = CARTESIAN_POINT ( 'NONE',  ( 6.982962677686266711E-14, 1.274795815262571030E-32, 20.00000000000000000 ) ) ;
#140 = EDGE_LOOP ( 'NONE', ( #48 ) ) ;
#141 = PLANE ( 'NONE',  #92 ) ;
#142 = APPROVAL_PERSON_ORGANIZATION ( #59, #98, #166 ) ;
#143 = DIRECTION ( 'NONE',  ( 0.0000000000000000000, 1.000000000000000000, 0.0000000000000000000 ) ) ;
#144 = COORDINATED_UNIVERSAL_TIME_OFFSET ( 1, 0, .AHEAD. ) ;
#145 = PERSON_AND_ORGANIZATION_ROLE ( 'creator' ) ;
#146 = VERTEX_POINT ( 'NONE', #178 ) ;
#147 = DATE_AND_TIME ( #85, #67 ) ;
#148 = LOCAL_TIME ( 15, 34, 40.00000000000000000, #58 ) ;
#149 = PERSON_AND_ORGANIZATION ( #56, #137 ) ;
#150 = CC_DESIGN_APPROVAL ( #98, ( #105 ) ) ;
#151 = ADVANCED_FACE ( 'NONE', ( #69 ), #196, .F. ) ;
#152 = APPLICATION_CONTEXT ( 'configuration controlled 3d designs of mechanical parts and assemblies' ) ;
#153 = AXIS2_PLACEMENT_3D ( 'NONE', #129, #82, #7 ) ;
#154 = EDGE_CURVE ( 'NONE', #117, #117, #30, .T. ) ;
#155 = CC_DESIGN_DATE_AND_TIME_ASSIGNMENT ( #90, #32, ( #91 ) ) ;
#156 = EDGE_LOOP ( 'NONE', ( #203 ) ) ;
#157 = ORIENTED_EDGE ( 'NONE', *, *, #108, .T. ) ;
#158 = AXIS2_PLACEMENT_3D ( 'NONE', #53, #28, #114 ) ;
#159 = FACE_OUTER_BOUND ( 'NONE', #19, .T. ) ;
#160 = DIRECTION ( 'NONE',  ( -3.491481338843133355E-15, 1.224646799147353454E-16, -1.000000000000000000 ) ) ;
#161 = APPROVAL_PERSON_ORGANIZATION ( #27, #200, #31 ) ;
#162 = UNCERTAINTY_MEASURE_WITH_UNIT (LENGTH_MEASURE( 1.000000000000000082E-05 ), #26, 'distance_accuracy_value', 'NONE');
#163 = CARTESIAN_POINT ( 'NONE',  ( 0.0000000000000000000, 0.0000000000000000000, 0.0000000000000000000 ) ) ;
#164 = DIRECTION ( 'NONE',  ( 0.0000000000000000000, 0.0000000000000000000, 1.000000000000000000 ) ) ;
#165 = CARTESIAN_POINT ( 'NONE',  ( 1.815570296198429345E-13, -6.368163355566237959E-15, 52.00000000000000000 ) ) ;
#166 = APPROVAL_ROLE ( '' ) ;
#167 = PERSON_AND_ORGANIZATION ( #56, #137 ) ;
#168 = PERSON_AND_ORGANIZATION ( #56, #137 ) ;
#169 = LOCAL_TIME ( 15, 34, 40.00000000000000000, #70 ) ;
#170 = ADVANCED_BREP_SHAPE_REPRESENTATION ( '33271', ( #183, #119, #110 ), #78 ) ;
#171 = ORIENTED_EDGE ( 'NONE', *, *, #154, .T. ) ;
#172 = DIRECTION ( 'NONE',  ( 4.275831445896959482E-31, 1.000000000000000000, 1.224646799147353207E-16 ) ) ;
#173 = CC_DESIGN_APPROVAL ( #200, ( #91 ) ) ;
#174 = CC_DESIGN_PERSON_AND_ORGANIZATION_ASSIGNMENT ( #167, #199, ( #105 ) ) ;
#175 = DIRECTION ( 'NONE',  ( -3.491481338843133355E-15, 1.224646799147353454E-16, -1.000000000000000000 ) ) ;
#176 = CARTESIAN_POINT ( 'NONE',  ( 2.160351977419193160E-15, -7.577494700443354211E-17, 0.6187493982525491543 ) ) ;
#177 = PERSON_AND_ORGANIZATION_ROLE ( 'design_owner' ) ;
#178 = CARTESIAN_POINT ( 'NONE',  ( 1.815570296198429345E-13, 1.299999999999991385, 52.00000000000000000 ) ) ;
#179 = LOCAL_TIME ( 15, 34, 40.00000000000000000, #144 ) ;
#180 = DIRECTION ( 'NONE',  ( 3.491481338843133355E-15, -1.224646799147353454E-16, 1.000000000000000000 ) ) ;
#181 = PERSON_AND_ORGANIZATION_ROLE ( 'classification_officer' ) ;
#182 = DIRECTION ( 'NONE',  ( 1.000000000000000000, 0.0000000000000000000, 0.0000000000000000000 ) ) ;
#183 = MANIFOLD_SOLID_BREP ( 'Corps-Déplacer/Copier1[1]', #6 ) ;
#184 = AXIS2_PLACEMENT_3D ( 'NONE', #188, #51, #172 ) ;
#185 = CLOSED_SHELL ( 'NONE', ( #36, #14, #5 ) ) ;
#186 = PLANE ( 'NONE',  #100 ) ;
#187 = EDGE_LOOP ( 'NONE', ( #47 ) ) ;
#188 = CARTESIAN_POINT ( 'NONE',  ( 0.0000000000000000000, 0.0000000000000000000, 0.0000000000000000000 ) ) ;
#189 = DIRECTION ( 'NONE',  ( -3.491481338843133355E-15, 1.224646799147353454E-16, -1.000000000000000000 ) ) ;
#190 = CC_DESIGN_APPROVAL ( #16, ( #54 ) ) ;
#191 = CYLINDRICAL_SURFACE ( 'NONE', #40, 1.699999999999995737 ) ;
#192 = APPROVAL_DATE_TIME ( #46, #98 ) ;
#193 = DIRECTION ( 'NONE',  ( -3.491481338843133355E-15, 1.224646799147353454E-16, -1.000000000000000000 ) ) ;
#194 = CARTESIAN_POINT ( 'NONE',  ( 2.160351977419193949E-15, 1.699999999999991518, 0.6187493982525493763 ) ) ;
#195 = APPLICATION_PROTOCOL_DEFINITION ( 'international standard', 'config_control_design', 1994, #152 ) ;
#196 = PLANE ( 'NONE',  #158 ) ;
#197 = EDGE_CURVE ( 'NONE', #83, #83, #73, .T. ) ;
#198 = APPROVAL_ROLE ( '' ) ;
#199 = PERSON_AND_ORGANIZATION_ROLE ( 'design_supplier' ) ;
#200 = APPROVAL ( #38, 'UNSPECIFIED' ) ;
#201 = CC_DESIGN_SECURITY_CLASSIFICATION ( #91, ( #105 ) ) ;
#202 = ADVANCED_FACE ( 'NONE', ( #55, #20 ), #45, .T. ) ;
#203 = ORIENTED_EDGE ( 'NONE', *, *, #33, .F. ) ;
ENDSEC;
END-ISO-10303-21;
