ISO-10303-21;
HEADER;
FILE_DESCRIPTION (( 'STEP AP203' ),
    '1' );
FILE_NAME ('33192.step',
    '2021-09-03T07:22:00',
    ( '' ),
    ( '' ),
    'SwSTEP 2.0',
    'SolidWorks 2019',
    '' );
FILE_SCHEMA (( 'CONFIG_CONTROL_DESIGN' ));
ENDSEC;

DATA;
#1 = EDGE_CURVE ( 'NONE', #213, #144, #40, .T. ) ;
#2 = ORIENTED_EDGE ( 'NONE', *, *, #174, .F. ) ;
#3 = AXIS2_PLACEMENT_3D ( 'NONE', #27, #281, #130 ) ;
#4 = PERSON_AND_ORGANIZATION_ROLE ( 'classification_officer' ) ;
#5 = DIRECTION ( 'NONE',  ( -3.491481338843133355E-15, 1.224646799147353207E-16, -1.000000000000000000 ) ) ;
#6 = DIRECTION ( 'NONE',  ( -3.491481338843133355E-15, 1.224646799147353207E-16, -1.000000000000000000 ) ) ;
#7 = DIRECTION ( 'NONE',  ( 4.275831445896957731E-31, 1.000000000000000000, 1.224646799147353207E-16 ) ) ;
#8 = VERTEX_POINT ( 'NONE', #98 ) ;
#9 = APPROVAL_ROLE ( '' ) ;
#10 = DIRECTION ( 'NONE',  ( -3.583125477929771572E-31, -1.000000000000000000, -1.008560160451640602E-16 ) ) ;
#11 = ORIENTED_EDGE ( 'NONE', *, *, #89, .F. ) ;
#12 = CC_DESIGN_PERSON_AND_ORGANIZATION_ASSIGNMENT ( #109, #263, ( #25 ) ) ;
#13 = EDGE_LOOP ( 'NONE', ( #190, #311, #141, #279 ) ) ;
#14 = CIRCLE ( 'NONE', #336, 1.074999999999992184 ) ;
#15 = ORIENTED_EDGE ( 'NONE', *, *, #137, .F. ) ;
#16 = CARTESIAN_POINT ( 'NONE',  ( 1.396592535537253342E-13, -4.898587196589413026E-15, 40.00000000000000000 ) ) ;
#17 = CARTESIAN_POINT ( 'NONE',  ( 2.255235661474001128E-15, -7.910301863627360116E-17, 0.6459251654546291910 ) ) ;
#18 = CIRCLE ( 'NONE', #210, 0.8749999999999956701 ) ;
#19 = CARTESIAN_POINT ( 'NONE',  ( 4.596518804339203921E-31, 1.074999999999993960, 1.316495309083397222E-16 ) ) ;
#20 = CARTESIAN_POINT ( 'NONE',  ( 0.0000000000000000000, 0.0000000000000000000, 0.0000000000000000000 ) ) ;
#21 = CARTESIAN_POINT ( 'NONE',  ( 3.491481338843133355E-14, -1.224646799147353256E-15, 10.00000000000000000 ) ) ;
#22 = CC_DESIGN_PERSON_AND_ORGANIZATION_ASSIGNMENT ( #91, #162, ( #145 ) ) ;
#23 = LINE ( 'NONE', #152, #96 ) ;
#24 = LOCAL_TIME ( 9, 22, 0.0000000000000000000, #238 ) ;
#25 = PRODUCT ( '33192', '33192', '', ( #294 ) ) ;
#26 = ORIENTED_EDGE ( 'NONE', *, *, #104, .T. ) ;
#27 = CARTESIAN_POINT ( 'NONE',  ( 0.0000000000000000000, 0.0000000000000000000, 0.0000000000000000000 ) ) ;
#28 = ADVANCED_FACE ( 'NONE', ( #173 ), #139, .T. ) ;
#29 = PERSON_AND_ORGANIZATION ( #235, #158 ) ;
#30 = ADVANCED_BREP_SHAPE_REPRESENTATION ( '33192', ( #274, #169, #82 ), #176 ) ;
#31 = CIRCLE ( 'NONE', #78, 1.074999999999995737 ) ;
#32 = LOCAL_TIME ( 9, 22, 0.0000000000000000000, #80 ) ;
#33 = CIRCLE ( 'NONE', #42, 1.074999999999995737 ) ;
#34 = LINE ( 'NONE', #39, #132 ) ;
#35 = DIRECTION ( 'NONE',  ( 4.275831445896958607E-31, 1.000000000000000000, 1.224646799147353207E-16 ) ) ;
#36 = COORDINATED_UNIVERSAL_TIME_OFFSET ( 1, 0, .AHEAD. ) ;
#37 = VERTEX_POINT ( 'NONE', #236 ) ;
#38 = LOCAL_TIME ( 9, 22, 0.0000000000000000000, #66 ) ;
#39 = CARTESIAN_POINT ( 'NONE',  ( 1.397664101486507243E-13, -0.8750000000000005551, 40.00000000000000000 ) ) ;
#40 = LINE ( 'NONE', #245, #180 ) ;
#41 = APPROVAL_STATUS ( 'not_yet_approved' ) ;
#42 = AXIS2_PLACEMENT_3D ( 'NONE', #207, #153, #255 ) ;
#43 = DIRECTION ( 'NONE',  ( 3.491481338843133355E-15, -1.224646799147353207E-16, 1.000000000000000000 ) ) ;
#44 = ORIENTED_EDGE ( 'NONE', *, *, #203, .F. ) ;
#45 = EDGE_CURVE ( 'NONE', #102, #213, #18, .T. ) ;
#46 = EDGE_LOOP ( 'NONE', ( #2, #116, #277, #11 ) ) ;
#47 = FACE_OUTER_BOUND ( 'NONE', #140, .T. ) ;
#48 = CC_DESIGN_DATE_AND_TIME_ASSIGNMENT ( #218, #183, ( #285 ) ) ;
#49 = ORIENTED_EDGE ( 'NONE', *, *, #291, .T. ) ;
#50 = DIRECTION ( 'NONE',  ( -3.491481338843133355E-15, 1.224646799147353207E-16, -1.000000000000000000 ) ) ;
#51 = LINE ( 'NONE', #326, #275 ) ;
#52 = DIRECTION ( 'NONE',  ( 0.0000000000000000000, 1.000000000000000000, 0.0000000000000000000 ) ) ;
#53 = ADVANCED_FACE ( 'NONE', ( #214 ), #256, .T. ) ;
#54 = DIRECTION ( 'NONE',  ( -3.491481338843133355E-15, 1.224646799147353207E-16, -1.000000000000000000 ) ) ;
#55 = ADVANCED_FACE ( 'NONE', ( #315 ), #58, .F. ) ;
#56 = CIRCLE ( 'NONE', #155, 1.074999999999992184 ) ;
#57 = ORIENTED_EDGE ( 'NONE', *, *, #105, .F. ) ;
#58 = PLANE ( 'NONE',  #319 ) ;
#59 = AXIS2_PLACEMENT_3D ( 'NONE', #225, #43, #334 ) ;
#60 = DIRECTION ( 'NONE',  ( 0.0000000000000000000, 1.000000000000000000, 0.0000000000000000000 ) ) ;
#61 =( LENGTH_UNIT ( ) NAMED_UNIT ( * ) SI_UNIT ( .MILLI., .METRE. ) );
#62 = DIRECTION ( 'NONE',  ( -3.491481338843133355E-15, 1.224646799147353207E-16, -1.000000000000000000 ) ) ;
#63 = DATE_AND_TIME ( #280, #32 ) ;
#64 = APPROVAL_DATE_TIME ( #325, #181 ) ;
#65 = DIRECTION ( 'NONE',  ( -3.491481338843133355E-15, 1.224646799147353207E-16, -1.000000000000000000 ) ) ;
#66 = COORDINATED_UNIVERSAL_TIME_OFFSET ( 1, 0, .AHEAD. ) ;
#67 = CLOSED_SHELL ( 'NONE', ( #260, #157, #160, #330, #28, #55 ) ) ;
#68 = APPROVAL_DATE_TIME ( #195, #312 ) ;
#69 = CIRCLE ( 'NONE', #103, 1.074999999999992184 ) ;
#70 = AXIS2_PLACEMENT_3D ( 'NONE', #287, #314, #134 ) ;
#71 = DIRECTION ( 'NONE',  ( 0.0000000000000000000, 1.000000000000000000, 0.0000000000000000000 ) ) ;
#72 = LINE ( 'NONE', #19, #184 ) ;
#73 = ADVANCED_FACE ( 'NONE', ( #224 ), #295, .T. ) ;
#74 = CONICAL_SURFACE ( 'NONE', #123, 1.074999999999990852, 1.029744258676649649 ) ;
#75 = CARTESIAN_POINT ( 'NONE',  ( 1.316495309083392785E-16, -1.074999999999993960, -1.316495309083401659E-16 ) ) ;
#76 = ORIENTED_EDGE ( 'NONE', *, *, #301, .F. ) ;
#77 = DIRECTION ( 'NONE',  ( -3.583125477929771572E-31, -1.000000000000000000, -1.008560160451640602E-16 ) ) ;
#78 = AXIS2_PLACEMENT_3D ( 'NONE', #299, #243, #107 ) ;
#79 = ORIENTED_EDGE ( 'NONE', *, *, #89, .T. ) ;
#80 = COORDINATED_UNIVERSAL_TIME_OFFSET ( 1, 0, .AHEAD. ) ;
#81 = EDGE_CURVE ( 'NONE', #8, #329, #149, .T. ) ;
#82 = AXIS2_PLACEMENT_3D ( 'NONE', #322, #318, #87 ) ;
#83 = APPROVAL_STATUS ( 'not_yet_approved' ) ;
#84 = AXIS2_PLACEMENT_3D ( 'NONE', #115, #62, #71 ) ;
#85 = CARTESIAN_POINT ( 'NONE',  ( 3.491481338843133355E-14, -1.224646799147353256E-15, 10.00000000000000000 ) ) ;
#86 = PRODUCT_DEFINITION_SHAPE ( 'NONE', 'NONE',  #145 ) ;
#87 = DIRECTION ( 'NONE',  ( 1.000000000000000000, 0.0000000000000000000, 0.0000000000000000000 ) ) ;
#88 = APPROVAL_STATUS ( 'not_yet_approved' ) ;
#89 = EDGE_CURVE ( 'NONE', #135, #144, #33, .T. ) ;
#90 = EDGE_LOOP ( 'NONE', ( #221, #327 ) ) ;
#91 = PERSON_AND_ORGANIZATION ( #235, #158 ) ;
#92 = VERTEX_POINT ( 'NONE', #231 ) ;
#93 = CARTESIAN_POINT ( 'NONE',  ( 2.255235661474000734E-15, -1.074999999999990852, 0.6459251654546290800 ) ) ;
#94 = DIRECTION ( 'NONE',  ( 3.583125477929771572E-31, 1.000000000000000000, 1.008560160451640602E-16 ) ) ;
#95 = APPROVAL_PERSON_ORGANIZATION ( #289, #181, #9 ) ;
#96 = VECTOR ( 'NONE', #65, 1000.000000000000000 ) ;
#97 = DIRECTION ( 'NONE',  ( 1.798245827342160317E-15, -0.8571673007021098911, 0.5150380749100582634 ) ) ;
#98 = CARTESIAN_POINT ( 'NONE',  ( 0.0000000000000000000, 0.0000000000000000000, 0.0000000000000000000 ) ) ;
#99 = CC_DESIGN_PERSON_AND_ORGANIZATION_ASSIGNMENT ( #310, #316, ( #171 ) ) ;
#100 = CYLINDRICAL_SURFACE ( 'NONE', #205, 1.074999999999991518 ) ;
#101 = CONICAL_SURFACE ( 'NONE', #273, 1.074999999999990852, 1.029744258676649649 ) ;
#102 = VERTEX_POINT ( 'NONE', #254 ) ;
#103 = AXIS2_PLACEMENT_3D ( 'NONE', #85, #208, #306 ) ;
#104 = EDGE_CURVE ( 'NONE', #144, #37, #72, .T. ) ;
#105 = EDGE_CURVE ( 'NONE', #163, #250, #14, .T. ) ;
#106 = FACE_OUTER_BOUND ( 'NONE', #292, .T. ) ;
#107 = DIRECTION ( 'NONE',  ( 0.0000000000000000000, 1.000000000000000000, 0.0000000000000000000 ) ) ;
#108 = ORIENTED_EDGE ( 'NONE', *, *, #234, .T. ) ;
#109 = PERSON_AND_ORGANIZATION ( #235, #158 ) ;
#110 = CARTESIAN_POINT ( 'NONE',  ( 1.396592535537253342E-13, 6.561449049145520295E-33, 40.00000000000000000 ) ) ;
#111 = EDGE_CURVE ( 'NONE', #250, #163, #216, .T. ) ;
#112 = CALENDAR_DATE ( 2021, 3, 9 ) ;
#113 = ORIENTED_EDGE ( 'NONE', *, *, #301, .T. ) ;
#114 = DIRECTION ( 'NONE',  ( 1.903218546456022717E-15, 0.8571673007021097801, 0.5150380749100585964 ) ) ;
#115 = CARTESIAN_POINT ( 'NONE',  ( 1.396592535537253342E-13, -4.898587196589413026E-15, 40.00000000000000000 ) ) ;
#116 = ORIENTED_EDGE ( 'NONE', *, *, #45, .T. ) ;
#117 = APPROVAL_PERSON_ORGANIZATION ( #284, #312, #159 ) ;
#118 = AXIS2_PLACEMENT_3D ( 'NONE', #147, #252, #206 ) ;
#119 = CARTESIAN_POINT ( 'NONE',  ( 2.255235661474001128E-15, -7.910301863627360116E-17, 0.6459251654546291910 ) ) ;
#120 = ORIENTED_EDGE ( 'NONE', *, *, #174, .T. ) ;
#121 = DIRECTION ( 'NONE',  ( -3.491481338843133355E-15, 1.224646799147353207E-16, -1.000000000000000000 ) ) ;
#122 = LINE ( 'NONE', #154, #305 ) ;
#123 = AXIS2_PLACEMENT_3D ( 'NONE', #119, #192, #10 ) ;
#124 = CC_DESIGN_PERSON_AND_ORGANIZATION_ASSIGNMENT ( #128, #337, ( #171 ) ) ;
#125 = DESIGN_CONTEXT ( 'detailed design', #233, 'design' ) ;
#126 = DIRECTION ( 'NONE',  ( -3.491481338843133355E-15, 1.224646799147353207E-16, -1.000000000000000000 ) ) ;
#127 = APPLICATION_CONTEXT ( 'configuration controlled 3d designs of mechanical parts and assemblies' ) ;
#128 = PERSON_AND_ORGANIZATION ( #235, #158 ) ;
#129 = EDGE_LOOP ( 'NONE', ( #223, #108, #313, #324 ) ) ;
#130 = DIRECTION ( 'NONE',  ( 4.275831445896958607E-31, 1.000000000000000000, 1.224646799147353207E-16 ) ) ;
#131 = EDGE_CURVE ( 'NONE', #165, #329, #172, .T. ) ;
#132 = VECTOR ( 'NONE', #244, 1000.000000000000114 ) ;
#133 = FACE_OUTER_BOUND ( 'NONE', #129, .T. ) ;
#134 = DIRECTION ( 'NONE',  ( 4.275831445896957731E-31, 1.000000000000000000, 1.224646799147353207E-16 ) ) ;
#135 = VERTEX_POINT ( 'NONE', #202 ) ;
#136 = CYLINDRICAL_SURFACE ( 'NONE', #253, 1.074999999999993960 ) ;
#137 = EDGE_CURVE ( 'NONE', #8, #165, #122, .T. ) ;
#138 = LOCAL_TIME ( 9, 22, 0.0000000000000000000, #36 ) ;
#139 = CONICAL_SURFACE ( 'NONE', #118, 0.8749999999999956701, 0.7853981633974512766 ) ;
#140 = EDGE_LOOP ( 'NONE', ( #142, #230, #248 ) ) ;
#141 = ORIENTED_EDGE ( 'NONE', *, *, #131, .F. ) ;
#142 = ORIENTED_EDGE ( 'NONE', *, *, #81, .F. ) ;
#143 = CARTESIAN_POINT ( 'NONE',  ( 2.255235661474001128E-15, -7.910301863627360116E-17, 0.6459251654546291910 ) ) ;
#144 = VERTEX_POINT ( 'NONE', #197 ) ;
#145 = PRODUCT_DEFINITION ( 'UNKNOWN', '', #171, #125 ) ;
#146 = ORIENTED_EDGE ( 'NONE', *, *, #111, .F. ) ;
#147 = CARTESIAN_POINT ( 'NONE',  ( 1.396592535537253342E-13, -4.898587196589413026E-15, 40.00000000000000000 ) ) ;
#148 = CARTESIAN_POINT ( 'NONE',  ( 3.491481338843133355E-14, -1.224646799147353256E-15, 10.00000000000000000 ) ) ;
#149 = LINE ( 'NONE', #93, #303 ) ;
#150 = AXIS2_PLACEMENT_3D ( 'NONE', #262, #293, #296 ) ;
#151 = FACE_OUTER_BOUND ( 'NONE', #201, .T. ) ;
#152 = CARTESIAN_POINT ( 'NONE',  ( 1.316495309083389826E-16, -1.074999999999991518, -1.316495309083398948E-16 ) ) ;
#153 = DIRECTION ( 'NONE',  ( -3.491481338843133355E-15, 1.224646799147353207E-16, -1.000000000000000000 ) ) ;
#154 = CARTESIAN_POINT ( 'NONE',  ( 2.386885192382340703E-15, 1.074999999999990852, 0.6459251654546293020 ) ) ;
#155 = AXIS2_PLACEMENT_3D ( 'NONE', #328, #286, #60 ) ;
#156 = CYLINDRICAL_SURFACE ( 'NONE', #70, 1.074999999999993960 ) ;
#157 = ADVANCED_FACE ( 'NONE', ( #133 ), #136, .T. ) ;
#158 = ORGANIZATION ( 'UNSPECIFIED', 'UNSPECIFIED', '' ) ;
#159 = APPROVAL_ROLE ( '' ) ;
#160 = ADVANCED_FACE ( 'NONE', ( #265 ), #193, .F. ) ;
#161 = ORIENTED_EDGE ( 'NONE', *, *, #209, .F. ) ;
#162 = PERSON_AND_ORGANIZATION_ROLE ( 'creator' ) ;
#163 = VERTEX_POINT ( 'NONE', #227 ) ;
#164 = ORIENTED_EDGE ( 'NONE', *, *, #1, .F. ) ;
#165 = VERTEX_POINT ( 'NONE', #219 ) ;
#166 = APPLICATION_PROTOCOL_DEFINITION ( 'international standard', 'config_control_design', 1994, #127 ) ;
#167 = DIRECTION ( 'NONE',  ( -3.491481338843133355E-15, 1.224646799147353207E-16, -1.000000000000000000 ) ) ;
#168 = SHAPE_DEFINITION_REPRESENTATION ( #86, #30 ) ;
#169 = MANIFOLD_SOLID_BREP ( 'Corps-Déplacer/Copier1[2]', #333 ) ;
#170 = DIRECTION ( 'NONE',  ( -3.491481338843133355E-15, 1.224646799147353207E-16, -1.000000000000000000 ) ) ;
#171 = PRODUCT_DEFINITION_FORMATION_WITH_SPECIFIED_SOURCE ( 'ANY', '', #25, .NOT_KNOWN. ) ;
#172 = CIRCLE ( 'NONE', #178, 1.074999999999990852 ) ;
#173 = FACE_OUTER_BOUND ( 'NONE', #46, .T. ) ;
#174 = EDGE_CURVE ( 'NONE', #102, #135, #34, .T. ) ;
#175 = UNCERTAINTY_MEASURE_WITH_UNIT (LENGTH_MEASURE( 1.000000000000000082E-05 ), #61, 'distance_accuracy_value', 'NONE');
#176 =( GEOMETRIC_REPRESENTATION_CONTEXT ( 3 ) GLOBAL_UNCERTAINTY_ASSIGNED_CONTEXT ( ( #175 ) ) GLOBAL_UNIT_ASSIGNED_CONTEXT ( ( #61, #186, #191 ) ) REPRESENTATION_CONTEXT ( 'NONE', 'WORKASPACE' ) );
#177 = DIRECTION ( 'NONE',  ( 0.0000000000000000000, 1.000000000000000000, 0.0000000000000000000 ) ) ;
#178 = AXIS2_PLACEMENT_3D ( 'NONE', #17, #50, #94 ) ;
#179 = APPROVAL_ROLE ( '' ) ;
#180 = VECTOR ( 'NONE', #335, 1000.000000000000114 ) ;
#181 = APPROVAL ( #41, 'UNSPECIFIED' ) ;
#182 = DIRECTION ( 'NONE',  ( -3.491481338843133355E-15, 1.224646799147353207E-16, -1.000000000000000000 ) ) ;
#183 = DATE_TIME_ROLE ( 'classification_date' ) ;
#184 = VECTOR ( 'NONE', #300, 1000.000000000000000 ) ;
#185 = ORIENTED_EDGE ( 'NONE', *, *, #81, .T. ) ;
#186 =( NAMED_UNIT ( * ) PLANE_ANGLE_UNIT ( ) SI_UNIT ( $, .RADIAN. ) );
#187 = COORDINATED_UNIVERSAL_TIME_OFFSET ( 1, 0, .AHEAD. ) ;
#188 = ORIENTED_EDGE ( 'NONE', *, *, #45, .F. ) ;
#189 = CARTESIAN_POINT ( 'NONE',  ( 0.0000000000000000000, 0.0000000000000000000, 0.0000000000000000000 ) ) ;
#190 = ORIENTED_EDGE ( 'NONE', *, *, #105, .T. ) ;
#191 =( NAMED_UNIT ( * ) SI_UNIT ( $, .STERADIAN. ) SOLID_ANGLE_UNIT ( ) );
#192 = DIRECTION ( 'NONE',  ( 3.491481338843133355E-15, -1.224646799147353207E-16, 1.000000000000000000 ) ) ;
#193 = PLANE ( 'NONE',  #150 ) ;
#194 = CARTESIAN_POINT ( 'NONE',  ( 1.871667405586098621E-14, -1.074999999999993516, 10.00000000000000000 ) ) ;
#195 = DATE_AND_TIME ( #264, #38 ) ;
#196 = AXIS2_PLACEMENT_3D ( 'NONE', #200, #167, #269 ) ;
#197 = CARTESIAN_POINT ( 'NONE',  ( 1.389609572859567202E-13, 1.074999999999990852, 39.80000000000000426 ) ) ;
#198 = PRODUCT_RELATED_PRODUCT_CATEGORY ( 'detail', '', ( #25 ) ) ;
#199 = DIRECTION ( 'NONE',  ( -3.491481338843133355E-15, 1.224646799147353207E-16, -1.000000000000000000 ) ) ;
#200 = CARTESIAN_POINT ( 'NONE',  ( 1.396592535537253342E-13, -4.898587196589413026E-15, 40.00000000000000000 ) ) ;
#201 = EDGE_LOOP ( 'NONE', ( #309, #308, #49, #321 ) ) ;
#202 = CARTESIAN_POINT ( 'NONE',  ( 8.706953486810218223E-14, -1.075000000000000622, 39.80000000000000426 ) ) ;
#203 = EDGE_CURVE ( 'NONE', #92, #37, #56, .T. ) ;
#204 = CC_DESIGN_APPROVAL ( #251, ( #171 ) ) ;
#205 = AXIS2_PLACEMENT_3D ( 'NONE', #20, #126, #237 ) ;
#206 = DIRECTION ( 'NONE',  ( 0.0000000000000000000, 1.000000000000000000, 0.0000000000000000000 ) ) ;
#207 = CARTESIAN_POINT ( 'NONE',  ( 1.389609572859567202E-13, -4.874094260606466312E-15, 39.80000000000000426 ) ) ;
#208 = DIRECTION ( 'NONE',  ( -3.491481338843133355E-15, 1.224646799147353207E-16, -1.000000000000000000 ) ) ;
#209 = EDGE_CURVE ( 'NONE', #144, #135, #31, .T. ) ;
#210 = AXIS2_PLACEMENT_3D ( 'NONE', #16, #121, #52 ) ;
#211 = EDGE_LOOP ( 'NONE', ( #15, #185, #298 ) ) ;
#212 = CARTESIAN_POINT ( 'NONE',  ( 2.255235661474001128E-15, -7.910301863627360116E-17, 0.6459251654546291910 ) ) ;
#213 = VERTEX_POINT ( 'NONE', #317 ) ;
#214 = FACE_OUTER_BOUND ( 'NONE', #13, .T. ) ;
#215 = EDGE_CURVE ( 'NONE', #37, #92, #69, .T. ) ;
#216 = CIRCLE ( 'NONE', #232, 1.074999999999992184 ) ;
#217 = ORIENTED_EDGE ( 'NONE', *, *, #234, .F. ) ;
#218 = DATE_AND_TIME ( #323, #302 ) ;
#219 = CARTESIAN_POINT ( 'NONE',  ( 2.386885192382340703E-15, 1.074999999999990852, 0.6459251654546293020 ) ) ;
#220 = DIRECTION ( 'NONE',  ( 3.583125477929771572E-31, 1.000000000000000000, 1.008560160451640602E-16 ) ) ;
#221 = ORIENTED_EDGE ( 'NONE', *, *, #215, .T. ) ;
#222 = AXIS2_PLACEMENT_3D ( 'NONE', #212, #6, #220 ) ;
#223 = ORIENTED_EDGE ( 'NONE', *, *, #209, .T. ) ;
#224 = FACE_OUTER_BOUND ( 'NONE', #331, .T. ) ;
#225 = CARTESIAN_POINT ( 'NONE',  ( 3.491481338843133355E-14, 8.061208831807406640E-33, 10.00000000000000000 ) ) ;
#226 = EDGE_LOOP ( 'NONE', ( #76, #188 ) ) ;
#227 = CARTESIAN_POINT ( 'NONE',  ( 3.491481338843133355E-14, 1.074999999999990852, 10.00000000000000000 ) ) ;
#228 = CIRCLE ( 'NONE', #222, 1.074999999999990852 ) ;
#229 = CONICAL_SURFACE ( 'NONE', #84, 0.8749999999999956701, 0.7853981633974512766 ) ;
#230 = ORIENTED_EDGE ( 'NONE', *, *, #137, .T. ) ;
#231 = CARTESIAN_POINT ( 'NONE',  ( 8.706953486810232107E-14, -1.074999999999993516, 10.00000000000000000 ) ) ;
#232 = AXIS2_PLACEMENT_3D ( 'NONE', #21, #170, #270 ) ;
#233 = APPLICATION_CONTEXT ( 'configuration controlled 3d designs of mechanical parts and assemblies' ) ;
#234 = EDGE_CURVE ( 'NONE', #135, #92, #276, .T. ) ;
#235 = PERSON ( 'UNSPECIFIED', 'UNSPECIFIED', 'UNSPECIFIED', ('UNSPECIFIED'), ('UNSPECIFIED'), ('UNSPECIFIED') ) ;
#236 = CARTESIAN_POINT ( 'NONE',  ( 3.491481338843133355E-14, 1.074999999999990852, 10.00000000000000000 ) ) ;
#237 = DIRECTION ( 'NONE',  ( 4.275831445896958607E-31, 1.000000000000000000, 1.224646799147353207E-16 ) ) ;
#238 = COORDINATED_UNIVERSAL_TIME_OFFSET ( 1, 0, .AHEAD. ) ;
#239 = FACE_OUTER_BOUND ( 'NONE', #282, .T. ) ;
#240 = PERSON_AND_ORGANIZATION ( #235, #158 ) ;
#241 = DATE_AND_TIME ( #258, #24 ) ;
#242 = CC_DESIGN_PERSON_AND_ORGANIZATION_ASSIGNMENT ( #240, #4, ( #285 ) ) ;
#243 = DIRECTION ( 'NONE',  ( -3.491481338843133355E-15, 1.224646799147353207E-16, -1.000000000000000000 ) ) ;
#244 = DIRECTION ( 'NONE',  ( -2.382254525458708792E-15, -0.7071067811865495711, -0.7071067811865455743 ) ) ;
#245 = CARTESIAN_POINT ( 'NONE',  ( 1.396592535537253342E-13, 0.8749999999999907851, 40.00000000000000000 ) ) ;
#246 = APPLICATION_PROTOCOL_DEFINITION ( 'international standard', 'config_control_design', 1994, #233 ) ;
#247 = ADVANCED_FACE ( 'NONE', ( #151 ), #100, .T. ) ;
#248 = ORIENTED_EDGE ( 'NONE', *, *, #131, .T. ) ;
#249 = DIRECTION ( 'NONE',  ( 3.491481338843133355E-15, -1.224646799147353207E-16, 1.000000000000000000 ) ) ;
#250 = VERTEX_POINT ( 'NONE', #194 ) ;
#251 = APPROVAL ( #83, 'UNSPECIFIED' ) ;
#252 = DIRECTION ( 'NONE',  ( -3.491481338843133355E-15, 1.224646799147353207E-16, -1.000000000000000000 ) ) ;
#253 = AXIS2_PLACEMENT_3D ( 'NONE', #189, #5, #7 ) ;
#254 = CARTESIAN_POINT ( 'NONE',  ( 1.394295084827579135E-13, -0.8750000000000005551, 40.00000000000000000 ) ) ;
#255 = DIRECTION ( 'NONE',  ( 0.0000000000000000000, 1.000000000000000000, 0.0000000000000000000 ) ) ;
#256 = CYLINDRICAL_SURFACE ( 'NONE', #3, 1.074999999999991518 ) ;
#257 = CARTESIAN_POINT ( 'NONE',  ( 2.255235661474000734E-15, -1.074999999999990852, 0.6459251654546290800 ) ) ;
#258 = CALENDAR_DATE ( 2021, 3, 9 ) ;
#259 = CIRCLE ( 'NONE', #196, 0.8749999999999956701 ) ;
#260 = ADVANCED_FACE ( 'NONE', ( #106 ), #229, .T. ) ;
#261 = DATE_TIME_ROLE ( 'creation_date' ) ;
#262 = CARTESIAN_POINT ( 'NONE',  ( 3.491481338843133355E-14, 8.061208831807406640E-33, 10.00000000000000000 ) ) ;
#263 = PERSON_AND_ORGANIZATION_ROLE ( 'design_owner' ) ;
#264 = CALENDAR_DATE ( 2021, 3, 9 ) ;
#265 = FACE_OUTER_BOUND ( 'NONE', #90, .T. ) ;
#266 = EDGE_CURVE ( 'NONE', #250, #329, #23, .T. ) ;
#267 = APPROVAL_PERSON_ORGANIZATION ( #29, #251, #179 ) ;
#268 = VECTOR ( 'NONE', #54, 1000.000000000000000 ) ;
#269 = DIRECTION ( 'NONE',  ( 0.0000000000000000000, 1.000000000000000000, 0.0000000000000000000 ) ) ;
#270 = DIRECTION ( 'NONE',  ( 0.0000000000000000000, 1.000000000000000000, 0.0000000000000000000 ) ) ;
#271 = CC_DESIGN_APPROVAL ( #312, ( #285 ) ) ;
#272 = FACE_OUTER_BOUND ( 'NONE', #211, .T. ) ;
#273 = AXIS2_PLACEMENT_3D ( 'NONE', #143, #249, #77 ) ;
#274 = MANIFOLD_SOLID_BREP ( 'Corps-Déplacer/Copier1[1]', #67 ) ;
#275 = VECTOR ( 'NONE', #199, 1000.000000000000000 ) ;
#276 = LINE ( 'NONE', #75, #268 ) ;
#277 = ORIENTED_EDGE ( 'NONE', *, *, #1, .T. ) ;
#278 = CC_DESIGN_APPROVAL ( #181, ( #145 ) ) ;
#279 = ORIENTED_EDGE ( 'NONE', *, *, #291, .F. ) ;
#280 = CALENDAR_DATE ( 2021, 3, 9 ) ;
#281 = DIRECTION ( 'NONE',  ( -3.491481338843133355E-15, 1.224646799147353207E-16, -1.000000000000000000 ) ) ;
#282 = EDGE_LOOP ( 'NONE', ( #217, #79, #26, #44 ) ) ;
#283 = ADVANCED_FACE ( 'NONE', ( #272 ), #74, .T. ) ;
#284 = PERSON_AND_ORGANIZATION ( #235, #158 ) ;
#285 = SECURITY_CLASSIFICATION ( '', '', #290 ) ;
#286 = DIRECTION ( 'NONE',  ( -3.491481338843133355E-15, 1.224646799147353207E-16, -1.000000000000000000 ) ) ;
#287 = CARTESIAN_POINT ( 'NONE',  ( 0.0000000000000000000, 0.0000000000000000000, 0.0000000000000000000 ) ) ;
#288 = APPROVAL_DATE_TIME ( #241, #251 ) ;
#289 = PERSON_AND_ORGANIZATION ( #235, #158 ) ;
#290 = SECURITY_CLASSIFICATION_LEVEL ( 'unclassified' ) ;
#291 = EDGE_CURVE ( 'NONE', #163, #165, #51, .T. ) ;
#292 = EDGE_LOOP ( 'NONE', ( #113, #120, #161, #164 ) ) ;
#293 = DIRECTION ( 'NONE',  ( 3.491481338843133355E-15, -1.224646799147353207E-16, 1.000000000000000000 ) ) ;
#294 = MECHANICAL_CONTEXT ( 'NONE', #127, 'mechanical' ) ;
#295 = PLANE ( 'NONE',  #59 ) ;
#296 = DIRECTION ( 'NONE',  ( -4.275831445896958607E-31, -1.000000000000000000, -1.224646799147353207E-16 ) ) ;
#297 = CC_DESIGN_SECURITY_CLASSIFICATION ( #285, ( #171 ) ) ;
#298 = ORIENTED_EDGE ( 'NONE', *, *, #332, .T. ) ;
#299 = CARTESIAN_POINT ( 'NONE',  ( 1.389609572859567202E-13, -4.874094260606466312E-15, 39.80000000000000426 ) ) ;
#300 = DIRECTION ( 'NONE',  ( -3.491481338843133355E-15, 1.224646799147353207E-16, -1.000000000000000000 ) ) ;
#301 = EDGE_CURVE ( 'NONE', #213, #102, #259, .T. ) ;
#302 = LOCAL_TIME ( 9, 22, 0.0000000000000000000, #187 ) ;
#303 = VECTOR ( 'NONE', #97, 1000.000000000000000 ) ;
#304 = DIRECTION ( 'NONE',  ( -3.491481338843133355E-15, 1.224646799147353207E-16, -1.000000000000000000 ) ) ;
#305 = VECTOR ( 'NONE', #114, 999.9999999999998863 ) ;
#306 = DIRECTION ( 'NONE',  ( 0.0000000000000000000, 1.000000000000000000, 0.0000000000000000000 ) ) ;
#307 = CC_DESIGN_DATE_AND_TIME_ASSIGNMENT ( #63, #261, ( #145 ) ) ;
#308 = ORIENTED_EDGE ( 'NONE', *, *, #111, .T. ) ;
#309 = ORIENTED_EDGE ( 'NONE', *, *, #266, .F. ) ;
#310 = PERSON_AND_ORGANIZATION ( #235, #158 ) ;
#311 = ORIENTED_EDGE ( 'NONE', *, *, #266, .T. ) ;
#312 = APPROVAL ( #88, 'UNSPECIFIED' ) ;
#313 = ORIENTED_EDGE ( 'NONE', *, *, #215, .F. ) ;
#314 = DIRECTION ( 'NONE',  ( -3.491481338843133355E-15, 1.224646799147353207E-16, -1.000000000000000000 ) ) ;
#315 = FACE_OUTER_BOUND ( 'NONE', #226, .T. ) ;
#316 = PERSON_AND_ORGANIZATION_ROLE ( 'design_supplier' ) ;
#317 = CARTESIAN_POINT ( 'NONE',  ( 1.396592535537253342E-13, 0.8749999999999907851, 40.00000000000000000 ) ) ;
#318 = DIRECTION ( 'NONE',  ( 0.0000000000000000000, 0.0000000000000000000, 1.000000000000000000 ) ) ;
#319 = AXIS2_PLACEMENT_3D ( 'NONE', #110, #182, #35 ) ;
#320 = ADVANCED_FACE ( 'NONE', ( #47 ), #101, .T. ) ;
#321 = ORIENTED_EDGE ( 'NONE', *, *, #332, .F. ) ;
#322 = CARTESIAN_POINT ( 'NONE',  ( 0.0000000000000000000, 0.0000000000000000000, 0.0000000000000000000 ) ) ;
#323 = CALENDAR_DATE ( 2021, 3, 9 ) ;
#324 = ORIENTED_EDGE ( 'NONE', *, *, #104, .F. ) ;
#325 = DATE_AND_TIME ( #112, #138 ) ;
#326 = CARTESIAN_POINT ( 'NONE',  ( 4.596518804339194287E-31, 1.074999999999991518, 1.316495309083394264E-16 ) ) ;
#327 = ORIENTED_EDGE ( 'NONE', *, *, #203, .T. ) ;
#328 = CARTESIAN_POINT ( 'NONE',  ( 3.491481338843133355E-14, -1.224646799147353256E-15, 10.00000000000000000 ) ) ;
#329 = VERTEX_POINT ( 'NONE', #257 ) ;
#330 = ADVANCED_FACE ( 'NONE', ( #239 ), #156, .T. ) ;
#331 = EDGE_LOOP ( 'NONE', ( #57, #146 ) ) ;
#332 = EDGE_CURVE ( 'NONE', #329, #165, #228, .T. ) ;
#333 = CLOSED_SHELL ( 'NONE', ( #53, #320, #283, #247, #73 ) ) ;
#334 = DIRECTION ( 'NONE',  ( -4.275831445896958607E-31, -1.000000000000000000, -1.224646799147353207E-16 ) ) ;
#335 = DIRECTION ( 'NONE',  ( -2.468850131082257455E-15, 0.7071067811865497932, -0.7071067811865453523 ) ) ;
#336 = AXIS2_PLACEMENT_3D ( 'NONE', #148, #304, #177 ) ;
#337 = PERSON_AND_ORGANIZATION_ROLE ( 'creator' ) ;
ENDSEC;
END-ISO-10303-21;
