ISO-10303-21;
HEADER;
FILE_DESCRIPTION (( 'STEP AP203' ),
    '1' );
FILE_NAME ('33105.step',
    '2021-10-15T13:34:39',
    ( '' ),
    ( '' ),
    'SwSTEP 2.0',
    'SolidWorks 2019',
    '' );
FILE_SCHEMA (( 'CONFIG_CONTROL_DESIGN' ));
ENDSEC;

DATA;
#1 = PRODUCT_RELATED_PRODUCT_CATEGORY ( 'detail', '', ( #43 ) ) ;
#2 = CARTESIAN_POINT ( 'NONE',  ( 4.066544898671434299E-15, -1.426351943612870228E-16, 1.164704749651860549 ) ) ;
#3 = VERTEX_POINT ( 'NONE', #30 ) ;
#4 = CLOSED_SHELL ( 'NONE', ( #66, #184, #34, #28 ) ) ;
#5 = AXIS2_PLACEMENT_3D ( 'NONE', #143, #62, #154 ) ;
#6 = UNCERTAINTY_MEASURE_WITH_UNIT (LENGTH_MEASURE( 1.000000000000000082E-05 ), #158, 'distance_accuracy_value', 'NONE');
#7 = DIRECTION ( 'NONE',  ( -3.491481338843133355E-15, 1.224646799147353207E-16, -1.000000000000000000 ) ) ;
#8 = AXIS2_PLACEMENT_3D ( 'NONE', #168, #203, #160 ) ;
#9 = FACE_OUTER_BOUND ( 'NONE', #147, .T. ) ;
#10 = APPROVAL_STATUS ( 'not_yet_approved' ) ;
#11 = PERSON_AND_ORGANIZATION_ROLE ( 'design_supplier' ) ;
#12 = CC_DESIGN_SECURITY_CLASSIFICATION ( #153, ( #115 ) ) ;
#13 = CC_DESIGN_PERSON_AND_ORGANIZATION_ASSIGNMENT ( #139, #200, ( #153 ) ) ;
#14 = DIRECTION ( 'NONE',  ( -3.491481338843133355E-15, 1.224646799147353207E-16, -1.000000000000000000 ) ) ;
#15 = CARTESIAN_POINT ( 'NONE',  ( 2.419596567818291352E-13, -8.486802318091157127E-15, 69.29999999999999716 ) ) ;
#16 = APPROVAL ( #10, 'UNSPECIFIED' ) ;
#17 = ORIENTED_EDGE ( 'NONE', *, *, #199, .F. ) ;
#18 = AXIS2_PLACEMENT_3D ( 'NONE', #15, #144, #59 ) ;
#19 = EDGE_CURVE ( 'NONE', #3, #3, #36, .T. ) ;
#20 = EDGE_LOOP ( 'NONE', ( #194 ) ) ;
#21 = ADVANCED_FACE ( 'NONE', ( #51 ), #121, .T. ) ;
#22 = CC_DESIGN_PERSON_AND_ORGANIZATION_ASSIGNMENT ( #88, #152, ( #137 ) ) ;
#23 = ORIENTED_EDGE ( 'NONE', *, *, #19, .F. ) ;
#24 = PERSON_AND_ORGANIZATION ( #176, #124 ) ;
#25 = DATE_AND_TIME ( #178, #188 ) ;
#26 = FACE_OUTER_BOUND ( 'NONE', #148, .T. ) ;
#27 = DATE_TIME_ROLE ( 'creation_date' ) ;
#28 = ADVANCED_FACE ( 'NONE', ( #9 ), #32, .F. ) ;
#29 = CYLINDRICAL_SURFACE ( 'NONE', #141, 3.199999999999999734 ) ;
#30 = CARTESIAN_POINT ( 'NONE',  ( 1.082359215041371340E-13, 3.199999999999993072, 31.00000000000000000 ) ) ;
#31 = AXIS2_PLACEMENT_3D ( 'NONE', #122, #74, #97 ) ;
#32 = PLANE ( 'NONE',  #133 ) ;
#33 = CIRCLE ( 'NONE', #119, 3.199999999999993072 ) ;
#34 = ADVANCED_FACE ( 'NONE', ( #39, #165 ), #177, .T. ) ;
#35 = CC_DESIGN_PERSON_AND_ORGANIZATION_ASSIGNMENT ( #104, #11, ( #115 ) ) ;
#36 = CIRCLE ( 'NONE', #64, 3.199999999999997069 ) ;
#37 = SHAPE_DEFINITION_REPRESENTATION ( #67, #82 ) ;
#38 = PERSON_AND_ORGANIZATION ( #176, #124 ) ;
#39 = FACE_OUTER_BOUND ( 'NONE', #149, .T. ) ;
#40 = CALENDAR_DATE ( 2021, 15, 10 ) ;
#41 = APPROVAL_ROLE ( '' ) ;
#42 = DATE_AND_TIME ( #105, #174 ) ;
#43 = PRODUCT ( '33105', '33105', '', ( #125 ) ) ;
#44 = DIRECTION ( 'NONE',  ( 3.491481338843133355E-15, -1.224646799147353207E-16, 1.000000000000000000 ) ) ;
#45 =( NAMED_UNIT ( * ) SI_UNIT ( $, .STERADIAN. ) SOLID_ANGLE_UNIT ( ) );
#46 = AXIS2_PLACEMENT_3D ( 'NONE', #156, #173, #130 ) ;
#47 = DIRECTION ( 'NONE',  ( -3.491481338843133355E-15, 1.224646799147353207E-16, -1.000000000000000000 ) ) ;
#48 = LOCAL_TIME ( 15, 34, 39.00000000000000000, #164 ) ;
#49 = AXIS2_PLACEMENT_3D ( 'NONE', #108, #44, #90 ) ;
#50 = COORDINATED_UNIVERSAL_TIME_OFFSET ( 1, 0, .AHEAD. ) ;
#51 = FACE_OUTER_BOUND ( 'NONE', #84, .T. ) ;
#52 = COORDINATED_UNIVERSAL_TIME_OFFSET ( 1, 0, .AHEAD. ) ;
#53 = DIRECTION ( 'NONE',  ( -3.491481338843133355E-15, 1.224646799147353207E-16, -1.000000000000000000 ) ) ;
#54 = DIRECTION ( 'NONE',  ( 1.000000000000000000, 0.0000000000000000000, 0.0000000000000000000 ) ) ;
#55 = CC_DESIGN_APPROVAL ( #16, ( #115 ) ) ;
#56 = DIRECTION ( 'NONE',  ( 0.0000000000000000000, 0.0000000000000000000, 1.000000000000000000 ) ) ;
#57 = ADVANCED_FACE ( 'NONE', ( #110, #26 ), #129, .T. ) ;
#58 = VERTEX_POINT ( 'NONE', #63 ) ;
#59 = DIRECTION ( 'NONE',  ( 0.0000000000000000000, 1.000000000000000000, 0.0000000000000000000 ) ) ;
#60 = LOCAL_TIME ( 15, 34, 39.00000000000000000, #196 ) ;
#61 =( NAMED_UNIT ( * ) PLANE_ANGLE_UNIT ( ) SI_UNIT ( $, .RADIAN. ) );
#62 = DIRECTION ( 'NONE',  ( -3.491481338843133355E-15, 1.224646799147353207E-16, -1.000000000000000000 ) ) ;
#63 = CARTESIAN_POINT ( 'NONE',  ( 4.066544898671435876E-15, 3.199999999999993072, 1.164704749651860993 ) ) ;
#64 = AXIS2_PLACEMENT_3D ( 'NONE', #69, #7, #72 ) ;
#65 = ORIENTED_EDGE ( 'NONE', *, *, #19, .T. ) ;
#66 = ADVANCED_FACE ( 'NONE', ( #187 ), #79, .F. ) ;
#67 = PRODUCT_DEFINITION_SHAPE ( 'NONE', 'NONE',  #137 ) ;
#68 = ORIENTED_EDGE ( 'NONE', *, *, #102, .T. ) ;
#69 = CARTESIAN_POINT ( 'NONE',  ( 1.082359215041371340E-13, -3.796405077356795115E-15, 31.00000000000000000 ) ) ;
#70 = CONICAL_SURFACE ( 'NONE', #49, 3.199999999999993072, 1.221730476396026388 ) ;
#71 = APPROVAL_DATE_TIME ( #25, #192 ) ;
#72 = DIRECTION ( 'NONE',  ( 0.0000000000000000000, 1.000000000000000000, 0.0000000000000000000 ) ) ;
#73 = CIRCLE ( 'NONE', #5, 2.500000000000001332 ) ;
#74 = DIRECTION ( 'NONE',  ( -3.491481338843133355E-15, 1.224646799147353207E-16, -1.000000000000000000 ) ) ;
#75 = PERSON_AND_ORGANIZATION_ROLE ( 'design_owner' ) ;
#76 = CC_DESIGN_APPROVAL ( #99, ( #137 ) ) ;
#77 = PERSON_AND_ORGANIZATION ( #176, #124 ) ;
#78 = FACE_OUTER_BOUND ( 'NONE', #197, .T. ) ;
#79 = PLANE ( 'NONE',  #8 ) ;
#80 = CARTESIAN_POINT ( 'NONE',  ( 1.082359215041371340E-13, 3.199999999999993072, 31.00000000000000000 ) ) ;
#81 = FACE_OUTER_BOUND ( 'NONE', #98, .T. ) ;
#82 = ADVANCED_BREP_SHAPE_REPRESENTATION ( '33105', ( #185, #117, #166 ), #193 ) ;
#83 = EDGE_LOOP ( 'NONE', ( #189 ) ) ;
#84 = EDGE_LOOP ( 'NONE', ( #23 ) ) ;
#85 = LOCAL_TIME ( 15, 34, 39.00000000000000000, #50 ) ;
#86 = APPROVAL_ROLE ( '' ) ;
#87 = DIRECTION ( 'NONE',  ( -4.275831445896958607E-31, -1.000000000000000000, -1.224646799147353207E-16 ) ) ;
#88 = PERSON_AND_ORGANIZATION ( #176, #124 ) ;
#89 = APPROVAL_DATE_TIME ( #134, #99 ) ;
#90 = DIRECTION ( 'NONE',  ( -4.814824860968100142E-31, -1.000000000000000000, -1.355252715606883501E-16 ) ) ;
#91 = CALENDAR_DATE ( 2021, 15, 10 ) ;
#92 = VERTEX_POINT ( 'NONE', #131 ) ;
#93 = APPLICATION_CONTEXT ( 'configuration controlled 3d designs of mechanical parts and assemblies' ) ;
#94 = DIRECTION ( 'NONE',  ( -3.491481338843133355E-15, 1.224646799147353207E-16, -1.000000000000000000 ) ) ;
#95 = DIRECTION ( 'NONE',  ( 4.814824860968100142E-31, 1.000000000000000000, 1.355252715606883501E-16 ) ) ;
#96 = AXIS2_PLACEMENT_3D ( 'NONE', #179, #112, #87 ) ;
#97 = DIRECTION ( 'NONE',  ( 0.0000000000000000000, 1.000000000000000000, 0.0000000000000000000 ) ) ;
#98 = EDGE_LOOP ( 'NONE', ( #190 ) ) ;
#99 = APPROVAL ( #138, 'UNSPECIFIED' ) ;
#100 = CC_DESIGN_APPROVAL ( #192, ( #153 ) ) ;
#101 = DESIGN_CONTEXT ( 'detailed design', #93, 'design' ) ;
#102 = EDGE_CURVE ( 'NONE', #58, #58, #33, .T. ) ;
#103 = DIRECTION ( 'NONE',  ( 4.275831445896958607E-31, 1.000000000000000000, 1.224646799147353207E-16 ) ) ;
#104 = PERSON_AND_ORGANIZATION ( #176, #124 ) ;
#105 = CALENDAR_DATE ( 2021, 15, 10 ) ;
#106 = DATE_TIME_ROLE ( 'classification_date' ) ;
#107 = CARTESIAN_POINT ( 'NONE',  ( 0.0000000000000000000, 0.0000000000000000000, 0.0000000000000000000 ) ) ;
#108 = CARTESIAN_POINT ( 'NONE',  ( 4.066544898671434299E-15, -1.426351943612870228E-16, 1.164704749651860549 ) ) ;
#109 = VERTEX_POINT ( 'NONE', #128 ) ;
#110 = FACE_OUTER_BOUND ( 'NONE', #83, .T. ) ;
#111 = EDGE_CURVE ( 'NONE', #92, #92, #145, .T. ) ;
#112 = DIRECTION ( 'NONE',  ( 3.491481338843133355E-15, -1.224646799147353207E-16, 1.000000000000000000 ) ) ;
#113 = ORIENTED_EDGE ( 'NONE', *, *, #111, .F. ) ;
#114 = CC_DESIGN_PERSON_AND_ORGANIZATION_ASSIGNMENT ( #77, #75, ( #43 ) ) ;
#115 = PRODUCT_DEFINITION_FORMATION_WITH_SPECIFIED_SOURCE ( 'ANY', '', #43, .NOT_KNOWN. ) ;
#116 = CC_DESIGN_DATE_AND_TIME_ASSIGNMENT ( #180, #27, ( #137 ) ) ;
#117 = MANIFOLD_SOLID_BREP ( 'Corps-Déplacer/Copier1[2]', #151 ) ;
#118 = ADVANCED_FACE ( 'NONE', ( #78 ), #70, .T. ) ;
#119 = AXIS2_PLACEMENT_3D ( 'NONE', #2, #47, #95 ) ;
#120 = PERSON_AND_ORGANIZATION_ROLE ( 'creator' ) ;
#121 = PLANE ( 'NONE',  #96 ) ;
#122 = CARTESIAN_POINT ( 'NONE',  ( 2.444036937190193601E-13, -8.572527594031472993E-15, 70.00000000000000000 ) ) ;
#123 = APPROVAL_DATE_TIME ( #198, #16 ) ;
#124 = ORGANIZATION ( 'UNSPECIFIED', 'UNSPECIFIED', '' ) ;
#125 = MECHANICAL_CONTEXT ( 'NONE', #140, 'mechanical' ) ;
#126 = CC_DESIGN_DATE_AND_TIME_ASSIGNMENT ( #42, #106, ( #153 ) ) ;
#127 = APPLICATION_PROTOCOL_DEFINITION ( 'international standard', 'config_control_design', 1994, #93 ) ;
#128 = CARTESIAN_POINT ( 'NONE',  ( 2.444036937190193601E-13, 2.499999999999992895, 70.00000000000000000 ) ) ;
#129 = CYLINDRICAL_SURFACE ( 'NONE', #46, 3.199999999999995293 ) ;
#130 = DIRECTION ( 'NONE',  ( 4.275831445896958607E-31, 1.000000000000000000, 1.224646799147353207E-16 ) ) ;
#131 = CARTESIAN_POINT ( 'NONE',  ( 2.419596567818291352E-13, 3.199999999999993072, 69.29999999999999716 ) ) ;
#132 = ORIENTED_EDGE ( 'NONE', *, *, #191, .F. ) ;
#133 = AXIS2_PLACEMENT_3D ( 'NONE', #181, #53, #103 ) ;
#134 = DATE_AND_TIME ( #40, #60 ) ;
#135 = SECURITY_CLASSIFICATION_LEVEL ( 'unclassified' ) ;
#136 = EDGE_LOOP ( 'NONE', ( #132 ) ) ;
#137 = PRODUCT_DEFINITION ( 'UNKNOWN', '', #115, #101 ) ;
#138 = APPROVAL_STATUS ( 'not_yet_approved' ) ;
#139 = PERSON_AND_ORGANIZATION ( #176, #124 ) ;
#140 = APPLICATION_CONTEXT ( 'configuration controlled 3d designs of mechanical parts and assemblies' ) ;
#141 = AXIS2_PLACEMENT_3D ( 'NONE', #107, #14, #146 ) ;
#142 = CALENDAR_DATE ( 2021, 15, 10 ) ;
#143 = CARTESIAN_POINT ( 'NONE',  ( 2.444036937190193601E-13, -8.572527594031472993E-15, 70.00000000000000000 ) ) ;
#144 = DIRECTION ( 'NONE',  ( -3.491481338843133355E-15, 1.224646799147353207E-16, -1.000000000000000000 ) ) ;
#145 = CIRCLE ( 'NONE', #18, 3.200000000000001954 ) ;
#146 = DIRECTION ( 'NONE',  ( 4.275831445896958607E-31, 1.000000000000000000, 1.224646799147353207E-16 ) ) ;
#147 = EDGE_LOOP ( 'NONE', ( #17 ) ) ;
#148 = EDGE_LOOP ( 'NONE', ( #65 ) ) ;
#149 = EDGE_LOOP ( 'NONE', ( #113 ) ) ;
#150 = APPROVAL_PERSON_ORGANIZATION ( #163, #16, #41 ) ;
#151 = CLOSED_SHELL ( 'NONE', ( #118, #57, #21 ) ) ;
#152 = PERSON_AND_ORGANIZATION_ROLE ( 'creator' ) ;
#153 = SECURITY_CLASSIFICATION ( '', '', #135 ) ;
#154 = DIRECTION ( 'NONE',  ( 0.0000000000000000000, 1.000000000000000000, 0.0000000000000000000 ) ) ;
#155 = APPROVAL_ROLE ( '' ) ;
#156 = CARTESIAN_POINT ( 'NONE',  ( 0.0000000000000000000, 0.0000000000000000000, 0.0000000000000000000 ) ) ;
#157 = DIRECTION ( 'NONE',  ( 0.0000000000000000000, 1.000000000000000000, 0.0000000000000000000 ) ) ;
#158 =( LENGTH_UNIT ( ) NAMED_UNIT ( * ) SI_UNIT ( .MILLI., .METRE. ) );
#159 = CIRCLE ( 'NONE', #170, 3.199999999999997069 ) ;
#160 = DIRECTION ( 'NONE',  ( -4.275831445896958607E-31, -1.000000000000000000, -1.224646799147353207E-16 ) ) ;
#161 = ORIENTED_EDGE ( 'NONE', *, *, #191, .T. ) ;
#162 = APPROVAL_PERSON_ORGANIZATION ( #167, #192, #155 ) ;
#163 = PERSON_AND_ORGANIZATION ( #176, #124 ) ;
#164 = COORDINATED_UNIVERSAL_TIME_OFFSET ( 1, 0, .AHEAD. ) ;
#165 = FACE_BOUND ( 'NONE', #20, .T. ) ;
#166 = AXIS2_PLACEMENT_3D ( 'NONE', #201, #56, #54 ) ;
#167 = PERSON_AND_ORGANIZATION ( #176, #124 ) ;
#168 = CARTESIAN_POINT ( 'NONE',  ( 1.082359215041371340E-13, 2.399615652258964235E-32, 31.00000000000000000 ) ) ;
#169 = APPLICATION_PROTOCOL_DEFINITION ( 'international standard', 'config_control_design', 1994, #140 ) ;
#170 = AXIS2_PLACEMENT_3D ( 'NONE', #171, #94, #157 ) ;
#171 = CARTESIAN_POINT ( 'NONE',  ( 1.082359215041371340E-13, -3.796405077356795115E-15, 31.00000000000000000 ) ) ;
#172 = FACE_OUTER_BOUND ( 'NONE', #136, .T. ) ;
#173 = DIRECTION ( 'NONE',  ( -3.491481338843133355E-15, 1.224646799147353207E-16, -1.000000000000000000 ) ) ;
#174 = LOCAL_TIME ( 15, 34, 39.00000000000000000, #186 ) ;
#175 = EDGE_LOOP ( 'NONE', ( #161 ) ) ;
#176 = PERSON ( 'UNSPECIFIED', 'UNSPECIFIED', 'UNSPECIFIED', ('UNSPECIFIED'), ('UNSPECIFIED'), ('UNSPECIFIED') ) ;
#177 = CONICAL_SURFACE ( 'NONE', #31, 2.500000000000001332, 0.7853981633974442822 ) ;
#178 = CALENDAR_DATE ( 2021, 15, 10 ) ;
#179 = CARTESIAN_POINT ( 'NONE',  ( 1.082359215041371340E-13, 2.399615652258964235E-32, 31.00000000000000000 ) ) ;
#180 = DATE_AND_TIME ( #142, #85 ) ;
#181 = CARTESIAN_POINT ( 'NONE',  ( 2.444036937190193601E-13, 1.874699728327309967E-32, 70.00000000000000000 ) ) ;
#182 = APPROVAL_PERSON_ORGANIZATION ( #38, #99, #86 ) ;
#183 = APPROVAL_STATUS ( 'not_yet_approved' ) ;
#184 = ADVANCED_FACE ( 'NONE', ( #172, #81 ), #29, .T. ) ;
#185 = MANIFOLD_SOLID_BREP ( 'Corps-Déplacer/Copier1[1]', #4 ) ;
#186 = COORDINATED_UNIVERSAL_TIME_OFFSET ( 1, 0, .AHEAD. ) ;
#187 = FACE_OUTER_BOUND ( 'NONE', #175, .T. ) ;
#188 = LOCAL_TIME ( 15, 34, 39.00000000000000000, #52 ) ;
#189 = ORIENTED_EDGE ( 'NONE', *, *, #102, .F. ) ;
#190 = ORIENTED_EDGE ( 'NONE', *, *, #111, .T. ) ;
#191 = EDGE_CURVE ( 'NONE', #202, #202, #159, .T. ) ;
#192 = APPROVAL ( #183, 'UNSPECIFIED' ) ;
#193 =( GEOMETRIC_REPRESENTATION_CONTEXT ( 3 ) GLOBAL_UNCERTAINTY_ASSIGNED_CONTEXT ( ( #6 ) ) GLOBAL_UNIT_ASSIGNED_CONTEXT ( ( #158, #61, #45 ) ) REPRESENTATION_CONTEXT ( 'NONE', 'WORKASPACE' ) );
#194 = ORIENTED_EDGE ( 'NONE', *, *, #199, .T. ) ;
#195 = CC_DESIGN_PERSON_AND_ORGANIZATION_ASSIGNMENT ( #24, #120, ( #115 ) ) ;
#196 = COORDINATED_UNIVERSAL_TIME_OFFSET ( 1, 0, .AHEAD. ) ;
#197 = EDGE_LOOP ( 'NONE', ( #68 ) ) ;
#198 = DATE_AND_TIME ( #91, #48 ) ;
#199 = EDGE_CURVE ( 'NONE', #109, #109, #73, .T. ) ;
#200 = PERSON_AND_ORGANIZATION_ROLE ( 'classification_officer' ) ;
#201 = CARTESIAN_POINT ( 'NONE',  ( 0.0000000000000000000, 0.0000000000000000000, 0.0000000000000000000 ) ) ;
#202 = VERTEX_POINT ( 'NONE', #80 ) ;
#203 = DIRECTION ( 'NONE',  ( 3.491481338843133355E-15, -1.224646799147353207E-16, 1.000000000000000000 ) ) ;
ENDSEC;
END-ISO-10303-21;
