ISO-10303-21;
HEADER;
FILE_DESCRIPTION (( 'STEP AP203' ),
    '1' );
FILE_NAME ('32945.step',
    '2021-11-15T15:37:00',
    ( '' ),
    ( '' ),
    'SwSTEP 2.0',
    'SolidWorks 2019',
    '' );
FILE_SCHEMA (( 'CONFIG_CONTROL_DESIGN' ));
ENDSEC;

DATA;
#1 = AXIS2_PLACEMENT_3D ( 'NONE', #32, #101, #190 ) ;
#2 = EDGE_LOOP ( 'NONE', ( #135 ) ) ;
#3 = CARTESIAN_POINT ( 'NONE',  ( -5.344789307371197820E-31, 1.874699728327322010E-32, -1.530808498934191571E-16 ) ) ;
#4 = LOCAL_TIME ( 16, 37, 0.0000000000000000000, #200 ) ;
#5 = DIRECTION ( 'NONE',  ( 4.275831445896958607E-31, 1.000000000000000000, 1.224646799147353207E-16 ) ) ;
#6 = EDGE_LOOP ( 'NONE', ( #46 ) ) ;
#7 = AXIS2_PLACEMENT_3D ( 'NONE', #99, #133, #79 ) ;
#8 = CARTESIAN_POINT ( 'NONE',  ( 1.106799584413273463E-13, -3.882130353297110981E-15, 31.70000000000000639 ) ) ;
#9 = PERSON_AND_ORGANIZATION_ROLE ( 'design_supplier' ) ;
#10 = PRODUCT_DEFINITION ( 'UNKNOWN', '', #191, #14 ) ;
#11 = COORDINATED_UNIVERSAL_TIME_OFFSET ( 1, 0, .AHEAD. ) ;
#12 = APPROVAL_DATE_TIME ( #35, #174 ) ;
#13 = APPROVAL_DATE_TIME ( #179, #156 ) ;
#14 = DESIGN_CONTEXT ( 'detailed design', #157, 'design' ) ;
#15 = CC_DESIGN_PERSON_AND_ORGANIZATION_ASSIGNMENT ( #137, #9, ( #191 ) ) ;
#16 = ORIENTED_EDGE ( 'NONE', *, *, #121, .T. ) ;
#17 = FACE_OUTER_BOUND ( 'NONE', #116, .T. ) ;
#18 = CC_DESIGN_APPROVAL ( #117, ( #38 ) ) ;
#19 = DIRECTION ( 'NONE',  ( -3.491481338843133355E-15, 1.224646799147353207E-16, -1.000000000000000000 ) ) ;
#20 = FACE_OUTER_BOUND ( 'NONE', #114, .T. ) ;
#21 = DIRECTION ( 'NONE',  ( 4.275831445896958607E-31, 1.000000000000000000, 1.224646799147353207E-16 ) ) ;
#22 = CC_DESIGN_PERSON_AND_ORGANIZATION_ASSIGNMENT ( #100, #161, ( #38 ) ) ;
#23 = CALENDAR_DATE ( 2021, 15, 11 ) ;
#24 = DATE_TIME_ROLE ( 'creation_date' ) ;
#25 = CARTESIAN_POINT ( 'NONE',  ( 2.793185071074506684E-14, 1.249999999999998890, 8.000000000000000000 ) ) ;
#26 = SECURITY_CLASSIFICATION_LEVEL ( 'unclassified' ) ;
#27 = CIRCLE ( 'NONE', #131, 0.9499999999999998446 ) ;
#28 = CC_DESIGN_PERSON_AND_ORGANIZATION_ASSIGNMENT ( #195, #118, ( #10 ) ) ;
#29 = AXIS2_PLACEMENT_3D ( 'NONE', #80, #149, #147 ) ;
#30 = DIRECTION ( 'NONE',  ( 0.0000000000000000000, 1.000000000000000000, 0.0000000000000000000 ) ) ;
#31 = DIRECTION ( 'NONE',  ( 0.0000000000000000000, 1.000000000000000000, 0.0000000000000000000 ) ) ;
#32 = CARTESIAN_POINT ( 'NONE',  ( -2.672394653685598910E-31, 9.373498641636610049E-33, -7.654042494670957853E-17 ) ) ;
#33 = CC_DESIGN_DATE_AND_TIME_ASSIGNMENT ( #122, #165, ( #38 ) ) ;
#34 = FACE_OUTER_BOUND ( 'NONE', #96, .T. ) ;
#35 = DATE_AND_TIME ( #84, #81 ) ;
#36 = APPLICATION_CONTEXT ( 'configuration controlled 3d designs of mechanical parts and assemblies' ) ;
#37 = DIRECTION ( 'NONE',  ( -3.491481338843133355E-15, 1.224646799147353207E-16, -1.000000000000000000 ) ) ;
#38 = SECURITY_CLASSIFICATION ( '', '', #26 ) ;
#39 = PERSON_AND_ORGANIZATION ( #141, #176 ) ;
#40 = SHAPE_DEFINITION_REPRESENTATION ( #154, #180 ) ;
#41 = CARTESIAN_POINT ( 'NONE',  ( 1.106799584413273463E-13, 1.249999999999996003, 31.70000000000000639 ) ) ;
#42 = AXIS2_PLACEMENT_3D ( 'NONE', #65, #19, #21 ) ;
#43 = DIRECTION ( 'NONE',  ( 4.275831445896958607E-31, 1.000000000000000000, 1.224646799147353207E-16 ) ) ;
#44 = APPLICATION_PROTOCOL_DEFINITION ( 'international standard', 'config_control_design', 1994, #36 ) ;
#45 = CC_DESIGN_PERSON_AND_ORGANIZATION_ASSIGNMENT ( #68, #134, ( #74 ) ) ;
#46 = ORIENTED_EDGE ( 'NONE', *, *, #85, .T. ) ;
#47 = ORIENTED_EDGE ( 'NONE', *, *, #142, .F. ) ;
#48 = EDGE_CURVE ( 'NONE', #182, #182, #27, .T. ) ;
#49 = AXIS2_PLACEMENT_3D ( 'NONE', #155, #76, #83 ) ;
#50 = ORIENTED_EDGE ( 'NONE', *, *, #85, .F. ) ;
#51 = APPROVAL_ROLE ( '' ) ;
#52 = PLANE ( 'NONE',  #7 ) ;
#53 = APPROVAL_STATUS ( 'not_yet_approved' ) ;
#54 = CC_DESIGN_SECURITY_CLASSIFICATION ( #38, ( #191 ) ) ;
#55 = CALENDAR_DATE ( 2021, 15, 11 ) ;
#56 = CIRCLE ( 'NONE', #124, 1.250000000000000000 ) ;
#57 = ADVANCED_FACE ( 'NONE', ( #20, #175 ), #178, .T. ) ;
#58 = DIRECTION ( 'NONE',  ( 0.0000000000000000000, 0.0000000000000000000, 1.000000000000000000 ) ) ;
#59 = CC_DESIGN_APPROVAL ( #156, ( #10 ) ) ;
#60 = CC_DESIGN_APPROVAL ( #174, ( #191 ) ) ;
#61 = ADVANCED_FACE ( 'NONE', ( #17 ), #113, .T. ) ;
#62 = FACE_OUTER_BOUND ( 'NONE', #144, .T. ) ;
#63 = DIRECTION ( 'NONE',  ( -3.491481338843133355E-15, 1.224646799147353207E-16, -1.000000000000000000 ) ) ;
#64 = AXIS2_PLACEMENT_3D ( 'NONE', #71, #151, #43 ) ;
#65 = CARTESIAN_POINT ( 'NONE',  ( 0.0000000000000000000, 0.0000000000000000000, 0.0000000000000000000 ) ) ;
#66 = DIRECTION ( 'NONE',  ( 1.000000000000000000, 0.0000000000000000000, 0.0000000000000000000 ) ) ;
#67 = ORIENTED_EDGE ( 'NONE', *, *, #48, .T. ) ;
#68 = PERSON_AND_ORGANIZATION ( #141, #176 ) ;
#69 = APPROVAL_ROLE ( '' ) ;
#70 = FACE_OUTER_BOUND ( 'NONE', #98, .T. ) ;
#71 = CARTESIAN_POINT ( 'NONE',  ( 1.117274028429802674E-13, 7.123858967643764794E-33, 32.00000000000000000 ) ) ;
#72 =( GEOMETRIC_REPRESENTATION_CONTEXT ( 3 ) GLOBAL_UNCERTAINTY_ASSIGNED_CONTEXT ( ( #93 ) ) GLOBAL_UNIT_ASSIGNED_CONTEXT ( ( #73, #168, #90 ) ) REPRESENTATION_CONTEXT ( 'NONE', 'WORKASPACE' ) );
#73 =( LENGTH_UNIT ( ) NAMED_UNIT ( * ) SI_UNIT ( .MILLI., .METRE. ) );
#74 = PRODUCT ( '32945', '32945', '', ( #193 ) ) ;
#75 = ADVANCED_FACE ( 'NONE', ( #34 ), #52, .T. ) ;
#76 = DIRECTION ( 'NONE',  ( -3.491481338843133355E-15, 1.224646799147353207E-16, -1.000000000000000000 ) ) ;
#77 = LOCAL_TIME ( 16, 37, 0.0000000000000000000, #106 ) ;
#78 = EDGE_LOOP ( 'NONE', ( #67 ) ) ;
#79 = DIRECTION ( 'NONE',  ( -4.275831445896958607E-31, -1.000000000000000000, -1.224646799147353207E-16 ) ) ;
#80 = CARTESIAN_POINT ( 'NONE',  ( 2.793185071074506684E-14, 9.373498641636594996E-33, 8.000000000000000000 ) ) ;
#81 = LOCAL_TIME ( 16, 37, 0.0000000000000000000, #11 ) ;
#82 = AXIS2_PLACEMENT_3D ( 'NONE', #119, #63, #145 ) ;
#83 = DIRECTION ( 'NONE',  ( 0.0000000000000000000, 1.000000000000000000, 0.0000000000000000000 ) ) ;
#84 = CALENDAR_DATE ( 2021, 15, 11 ) ;
#85 = EDGE_CURVE ( 'NONE', #166, #166, #56, .T. ) ;
#86 = COORDINATED_UNIVERSAL_TIME_OFFSET ( 1, 0, .AHEAD. ) ;
#87 = CARTESIAN_POINT ( 'NONE',  ( 0.0000000000000000000, 1.250000000000000000, 0.0000000000000000000 ) ) ;
#88 = LOCAL_TIME ( 16, 37, 0.0000000000000000000, #167 ) ;
#89 = PERSON_AND_ORGANIZATION ( #141, #176 ) ;
#90 =( NAMED_UNIT ( * ) SI_UNIT ( $, .STERADIAN. ) SOLID_ANGLE_UNIT ( ) );
#91 = CYLINDRICAL_SURFACE ( 'NONE', #163, 1.249999999999999778 ) ;
#92 = VERTEX_POINT ( 'NONE', #104 ) ;
#93 = UNCERTAINTY_MEASURE_WITH_UNIT (LENGTH_MEASURE( 1.000000000000000082E-05 ), #73, 'distance_accuracy_value', 'NONE');
#94 = AXIS2_PLACEMENT_3D ( 'NONE', #8, #194, #30 ) ;
#95 = ADVANCED_FACE ( 'NONE', ( #158 ), #162, .F. ) ;
#96 = EDGE_LOOP ( 'NONE', ( #47 ) ) ;
#97 = DIRECTION ( 'NONE',  ( -3.491481338843133355E-15, 1.224646799147353207E-16, -1.000000000000000000 ) ) ;
#98 = EDGE_LOOP ( 'NONE', ( #50 ) ) ;
#99 = CARTESIAN_POINT ( 'NONE',  ( 2.793185071074506684E-14, 9.373498641636594996E-33, 8.000000000000000000 ) ) ;
#100 = PERSON_AND_ORGANIZATION ( #141, #176 ) ;
#101 = DIRECTION ( 'NONE',  ( -3.491481338843133355E-15, 1.224646799147353207E-16, -1.000000000000000000 ) ) ;
#102 = CIRCLE ( 'NONE', #49, 1.250000000000000000 ) ;
#103 = PERSON_AND_ORGANIZATION ( #141, #176 ) ;
#104 = CARTESIAN_POINT ( 'NONE',  ( 2.793185071074506684E-14, 1.249999999999998890, 8.000000000000000000 ) ) ;
#105 = ADVANCED_FACE ( 'NONE', ( #173, #192 ), #143, .T. ) ;
#106 = COORDINATED_UNIVERSAL_TIME_OFFSET ( 1, 0, .AHEAD. ) ;
#107 = CARTESIAN_POINT ( 'NONE',  ( 1.117274028429802674E-13, 0.9499999999999959588, 32.00000000000000000 ) ) ;
#108 = PERSON_AND_ORGANIZATION_ROLE ( 'creator' ) ;
#109 = VERTEX_POINT ( 'NONE', #87 ) ;
#110 = APPROVAL_PERSON_ORGANIZATION ( #89, #174, #120 ) ;
#111 = CIRCLE ( 'NONE', #94, 1.249999999999999778 ) ;
#112 = ORIENTED_EDGE ( 'NONE', *, *, #142, .T. ) ;
#113 = PLANE ( 'NONE',  #1 ) ;
#114 = EDGE_LOOP ( 'NONE', ( #112 ) ) ;
#115 = APPROVAL_PERSON_ORGANIZATION ( #197, #156, #51 ) ;
#116 = EDGE_LOOP ( 'NONE', ( #189 ) ) ;
#117 = APPROVAL ( #132, 'UNSPECIFIED' ) ;
#118 = PERSON_AND_ORGANIZATION_ROLE ( 'creator' ) ;
#119 = CARTESIAN_POINT ( 'NONE',  ( 1.106799584413273463E-13, -3.882130353297110981E-15, 31.70000000000000639 ) ) ;
#120 = APPROVAL_ROLE ( '' ) ;
#121 = EDGE_CURVE ( 'NONE', #185, #185, #111, .T. ) ;
#122 = DATE_AND_TIME ( #23, #77 ) ;
#123 = APPROVAL_DATE_TIME ( #152, #117 ) ;
#124 = AXIS2_PLACEMENT_3D ( 'NONE', #159, #97, #31 ) ;
#125 = CC_DESIGN_DATE_AND_TIME_ASSIGNMENT ( #138, #24, ( #10 ) ) ;
#126 = PRODUCT_RELATED_PRODUCT_CATEGORY ( 'detail', '', ( #74 ) ) ;
#127 = MANIFOLD_SOLID_BREP ( 'Corps-Déplacer/Copier1[1]', #172 ) ;
#128 = PLANE ( 'NONE',  #64 ) ;
#129 = DIRECTION ( 'NONE',  ( 0.0000000000000000000, 1.000000000000000000, 0.0000000000000000000 ) ) ;
#130 = ORIENTED_EDGE ( 'NONE', *, *, #121, .F. ) ;
#131 = AXIS2_PLACEMENT_3D ( 'NONE', #177, #37, #129 ) ;
#132 = APPROVAL_STATUS ( 'not_yet_approved' ) ;
#133 = DIRECTION ( 'NONE',  ( 3.491481338843133355E-15, -1.224646799147353207E-16, 1.000000000000000000 ) ) ;
#134 = PERSON_AND_ORGANIZATION_ROLE ( 'design_owner' ) ;
#135 = ORIENTED_EDGE ( 'NONE', *, *, #146, .F. ) ;
#136 = CALENDAR_DATE ( 2021, 15, 11 ) ;
#137 = PERSON_AND_ORGANIZATION ( #141, #176 ) ;
#138 = DATE_AND_TIME ( #136, #88 ) ;
#139 = ORIENTED_EDGE ( 'NONE', *, *, #48, .F. ) ;
#140 = AXIS2_PLACEMENT_3D ( 'NONE', #3, #150, #5 ) ;
#141 = PERSON ( 'UNSPECIFIED', 'UNSPECIFIED', 'UNSPECIFIED', ('UNSPECIFIED'), ('UNSPECIFIED'), ('UNSPECIFIED') ) ;
#142 = EDGE_CURVE ( 'NONE', #92, #92, #102, .T. ) ;
#143 = CONICAL_SURFACE ( 'NONE', #82, 1.249999999999999778, 0.7853981633974569387 ) ;
#144 = EDGE_LOOP ( 'NONE', ( #139 ) ) ;
#145 = DIRECTION ( 'NONE',  ( 0.0000000000000000000, 1.000000000000000000, 0.0000000000000000000 ) ) ;
#146 = EDGE_CURVE ( 'NONE', #109, #109, #169, .T. ) ;
#147 = DIRECTION ( 'NONE',  ( -4.275831445896958607E-31, -1.000000000000000000, -1.224646799147353207E-16 ) ) ;
#148 = EDGE_LOOP ( 'NONE', ( #130 ) ) ;
#149 = DIRECTION ( 'NONE',  ( 3.491481338843133355E-15, -1.224646799147353207E-16, 1.000000000000000000 ) ) ;
#150 = DIRECTION ( 'NONE',  ( -3.491481338843133355E-15, 1.224646799147353207E-16, -1.000000000000000000 ) ) ;
#151 = DIRECTION ( 'NONE',  ( -3.491481338843133355E-15, 1.224646799147353207E-16, -1.000000000000000000 ) ) ;
#152 = DATE_AND_TIME ( #55, #4 ) ;
#153 = DIRECTION ( 'NONE',  ( 4.275831445896958607E-31, 1.000000000000000000, 1.224646799147353207E-16 ) ) ;
#154 = PRODUCT_DEFINITION_SHAPE ( 'NONE', 'NONE',  #10 ) ;
#155 = CARTESIAN_POINT ( 'NONE',  ( 2.793185071074506684E-14, -9.797174393178825657E-16, 8.000000000000000000 ) ) ;
#156 = APPROVAL ( #53, 'UNSPECIFIED' ) ;
#157 = APPLICATION_CONTEXT ( 'configuration controlled 3d designs of mechanical parts and assemblies' ) ;
#158 = FACE_OUTER_BOUND ( 'NONE', #6, .T. ) ;
#159 = CARTESIAN_POINT ( 'NONE',  ( 2.793185071074506684E-14, -9.797174393178825657E-16, 8.000000000000000000 ) ) ;
#160 = EDGE_LOOP ( 'NONE', ( #16 ) ) ;
#161 = PERSON_AND_ORGANIZATION_ROLE ( 'classification_officer' ) ;
#162 = PLANE ( 'NONE',  #29 ) ;
#163 = AXIS2_PLACEMENT_3D ( 'NONE', #201, #171, #153 ) ;
#164 = CALENDAR_DATE ( 2021, 15, 11 ) ;
#165 = DATE_TIME_ROLE ( 'classification_date' ) ;
#166 = VERTEX_POINT ( 'NONE', #25 ) ;
#167 = COORDINATED_UNIVERSAL_TIME_OFFSET ( 1, 0, .AHEAD. ) ;
#168 =( NAMED_UNIT ( * ) PLANE_ANGLE_UNIT ( ) SI_UNIT ( $, .RADIAN. ) );
#169 = CIRCLE ( 'NONE', #140, 1.250000000000000000 ) ;
#170 = FACE_OUTER_BOUND ( 'NONE', #160, .T. ) ;
#171 = DIRECTION ( 'NONE',  ( -3.491481338843133355E-15, 1.224646799147353207E-16, -1.000000000000000000 ) ) ;
#172 = CLOSED_SHELL ( 'NONE', ( #95, #188, #105, #183 ) ) ;
#173 = FACE_BOUND ( 'NONE', #78, .T. ) ;
#174 = APPROVAL ( #181, 'UNSPECIFIED' ) ;
#175 = FACE_OUTER_BOUND ( 'NONE', #2, .T. ) ;
#176 = ORGANIZATION ( 'UNSPECIFIED', 'UNSPECIFIED', '' ) ;
#177 = CARTESIAN_POINT ( 'NONE',  ( 1.117274028429802674E-13, -3.918869757271530263E-15, 32.00000000000000000 ) ) ;
#178 = CYLINDRICAL_SURFACE ( 'NONE', #42, 1.250000000000000000 ) ;
#179 = DATE_AND_TIME ( #164, #187 ) ;
#180 = ADVANCED_BREP_SHAPE_REPRESENTATION ( '32945', ( #127, #196, #186 ), #72 ) ;
#181 = APPROVAL_STATUS ( 'not_yet_approved' ) ;
#182 = VERTEX_POINT ( 'NONE', #107 ) ;
#183 = ADVANCED_FACE ( 'NONE', ( #62 ), #128, .F. ) ;
#184 = APPLICATION_PROTOCOL_DEFINITION ( 'international standard', 'config_control_design', 1994, #157 ) ;
#185 = VERTEX_POINT ( 'NONE', #41 ) ;
#186 = AXIS2_PLACEMENT_3D ( 'NONE', #203, #58, #66 ) ;
#187 = LOCAL_TIME ( 16, 37, 0.0000000000000000000, #86 ) ;
#188 = ADVANCED_FACE ( 'NONE', ( #170, #70 ), #91, .T. ) ;
#189 = ORIENTED_EDGE ( 'NONE', *, *, #146, .T. ) ;
#190 = DIRECTION ( 'NONE',  ( 4.275831445896958607E-31, 1.000000000000000000, 1.224646799147353207E-16 ) ) ;
#191 = PRODUCT_DEFINITION_FORMATION_WITH_SPECIFIED_SOURCE ( 'ANY', '', #74, .NOT_KNOWN. ) ;
#192 = FACE_OUTER_BOUND ( 'NONE', #148, .T. ) ;
#193 = MECHANICAL_CONTEXT ( 'NONE', #36, 'mechanical' ) ;
#194 = DIRECTION ( 'NONE',  ( -3.491481338843133355E-15, 1.224646799147353207E-16, -1.000000000000000000 ) ) ;
#195 = PERSON_AND_ORGANIZATION ( #141, #176 ) ;
#196 = MANIFOLD_SOLID_BREP ( 'Corps-Déplacer/Copier1[2]', #202 ) ;
#197 = PERSON_AND_ORGANIZATION ( #141, #176 ) ;
#198 = CC_DESIGN_PERSON_AND_ORGANIZATION_ASSIGNMENT ( #39, #108, ( #191 ) ) ;
#199 = APPROVAL_PERSON_ORGANIZATION ( #103, #117, #69 ) ;
#200 = COORDINATED_UNIVERSAL_TIME_OFFSET ( 1, 0, .AHEAD. ) ;
#201 = CARTESIAN_POINT ( 'NONE',  ( 0.0000000000000000000, 0.0000000000000000000, 0.0000000000000000000 ) ) ;
#202 = CLOSED_SHELL ( 'NONE', ( #61, #57, #75 ) ) ;
#203 = CARTESIAN_POINT ( 'NONE',  ( 0.0000000000000000000, 0.0000000000000000000, 0.0000000000000000000 ) ) ;
ENDSEC;
END-ISO-10303-21;
