ISO-10303-21;
HEADER;
FILE_DESCRIPTION (( 'STEP AP203' ),
    '1' );
FILE_NAME ('32944.step',
    '2021-11-15T15:37:00',
    ( '' ),
    ( '' ),
    'SwSTEP 2.0',
    'SolidWorks 2019',
    '' );
FILE_SCHEMA (( 'CONFIG_CONTROL_DESIGN' ));
ENDSEC;

DATA;
#1 = CIRCLE ( 'NONE', #153, 1.000000000000000000 ) ;
#2 = DIRECTION ( 'NONE',  ( 0.0000000000000000000, 1.000000000000000000, 0.0000000000000000000 ) ) ;
#3 = CC_DESIGN_APPROVAL ( #53, ( #13 ) ) ;
#4 = APPROVAL_PERSON_ORGANIZATION ( #31, #53, #49 ) ;
#5 = LOCAL_TIME ( 16, 37, 0.0000000000000000000, #106 ) ;
#6 = VERTEX_POINT ( 'NONE', #152 ) ;
#7 = ADVANCED_FACE ( 'NONE', ( #202 ), #118, .T. ) ;
#8 = PERSON_AND_ORGANIZATION_ROLE ( 'creator' ) ;
#9 = ORIENTED_EDGE ( 'NONE', *, *, #60, .F. ) ;
#10 = ADVANCED_BREP_SHAPE_REPRESENTATION ( '32944', ( #48, #180, #34 ), #159 ) ;
#11 = VERTEX_POINT ( 'NONE', #135 ) ;
#12 = CYLINDRICAL_SURFACE ( 'NONE', #58, 0.9999999999999981126 ) ;
#13 = SECURITY_CLASSIFICATION ( '', '', #199 ) ;
#14 = PERSON_AND_ORGANIZATION ( #100, #104 ) ;
#15 = CALENDAR_DATE ( 2021, 15, 11 ) ;
#16 = EDGE_LOOP ( 'NONE', ( #9 ) ) ;
#17 = CC_DESIGN_PERSON_AND_ORGANIZATION_ASSIGNMENT ( #194, #179, ( #145 ) ) ;
#18 = CC_DESIGN_DATE_AND_TIME_ASSIGNMENT ( #70, #22, ( #145 ) ) ;
#19 = APPROVAL_PERSON_ORGANIZATION ( #24, #192, #150 ) ;
#20 = ADVANCED_FACE ( 'NONE', ( #89 ), #75, .T. ) ;
#21 = CONICAL_SURFACE ( 'NONE', #35, 0.9999999999999961142, 0.7853981633974482790 ) ;
#22 = DATE_TIME_ROLE ( 'creation_date' ) ;
#23 = CYLINDRICAL_SURFACE ( 'NONE', #33, 1.000000000000000000 ) ;
#24 = PERSON_AND_ORGANIZATION ( #100, #104 ) ;
#25 = ORIENTED_EDGE ( 'NONE', *, *, #60, .T. ) ;
#26 = DIRECTION ( 'NONE',  ( 0.0000000000000000000, 0.0000000000000000000, 1.000000000000000000 ) ) ;
#27 = ORIENTED_EDGE ( 'NONE', *, *, #144, .T. ) ;
#28 = AXIS2_PLACEMENT_3D ( 'NONE', #149, #62, #2 ) ;
#29 = CARTESIAN_POINT ( 'NONE',  ( 1.110291065752116407E-13, 0.9999999999999922284, 31.80000000000000071 ) ) ;
#30 = CARTESIAN_POINT ( 'NONE',  ( 1.117274028429802674E-13, 5.999039130647352429E-33, 32.00000000000000000 ) ) ;
#31 = PERSON_AND_ORGANIZATION ( #100, #104 ) ;
#32 = DIRECTION ( 'NONE',  ( -3.491481338843133355E-15, 1.224646799147353207E-16, -1.000000000000000000 ) ) ;
#33 = AXIS2_PLACEMENT_3D ( 'NONE', #86, #151, #155 ) ;
#34 = AXIS2_PLACEMENT_3D ( 'NONE', #162, #26, #97 ) ;
#35 = AXIS2_PLACEMENT_3D ( 'NONE', #45, #169, #203 ) ;
#36 = CC_DESIGN_PERSON_AND_ORGANIZATION_ASSIGNMENT ( #121, #72, ( #13 ) ) ;
#37 = PERSON_AND_ORGANIZATION ( #100, #104 ) ;
#38 = EDGE_LOOP ( 'NONE', ( #57 ) ) ;
#39 = APPROVAL_PERSON_ORGANIZATION ( #37, #115, #95 ) ;
#40 = PERSON_AND_ORGANIZATION_ROLE ( 'design_supplier' ) ;
#41 = CARTESIAN_POINT ( 'NONE',  ( 2.793185071074506684E-14, 7.498798913309274355E-33, 8.000000000000000000 ) ) ;
#42 = FACE_OUTER_BOUND ( 'NONE', #16, .T. ) ;
#43 = EDGE_CURVE ( 'NONE', #94, #94, #66, .T. ) ;
#44 = APPLICATION_PROTOCOL_DEFINITION ( 'international standard', 'config_control_design', 1994, #91 ) ;
#45 = CARTESIAN_POINT ( 'NONE',  ( 1.110291065752116407E-13, -3.894376821288583549E-15, 31.80000000000000071 ) ) ;
#46 = DIRECTION ( 'NONE',  ( 0.0000000000000000000, 1.000000000000000000, 0.0000000000000000000 ) ) ;
#47 = DIRECTION ( 'NONE',  ( 4.275831445896958607E-31, 1.000000000000000000, 1.224646799147353207E-16 ) ) ;
#48 = MANIFOLD_SOLID_BREP ( 'Corps-Déplacer/Copier1[1]', #109 ) ;
#49 = APPROVAL_ROLE ( '' ) ;
#50 = UNCERTAINTY_MEASURE_WITH_UNIT (LENGTH_MEASURE( 1.000000000000000082E-05 ), #117, 'distance_accuracy_value', 'NONE');
#51 = APPLICATION_CONTEXT ( 'configuration controlled 3d designs of mechanical parts and assemblies' ) ;
#52 = CLOSED_SHELL ( 'NONE', ( #20, #63, #7 ) ) ;
#53 = APPROVAL ( #93, 'UNSPECIFIED' ) ;
#54 = CC_DESIGN_APPROVAL ( #192, ( #145 ) ) ;
#55 = APPROVAL_DATE_TIME ( #74, #192 ) ;
#56 = APPROVAL_STATUS ( 'not_yet_approved' ) ;
#57 = ORIENTED_EDGE ( 'NONE', *, *, #43, .T. ) ;
#58 = AXIS2_PLACEMENT_3D ( 'NONE', #101, #197, #77 ) ;
#59 = CARTESIAN_POINT ( 'NONE',  ( -2.137915722948478865E-31, 7.498798913309288039E-33, -6.123233995736766036E-17 ) ) ;
#60 = EDGE_CURVE ( 'NONE', #11, #11, #143, .T. ) ;
#61 = FACE_OUTER_BOUND ( 'NONE', #69, .T. ) ;
#62 = DIRECTION ( 'NONE',  ( -3.491481338843133355E-15, 1.224646799147353207E-16, -1.000000000000000000 ) ) ;
#63 = ADVANCED_FACE ( 'NONE', ( #90, #185 ), #23, .T. ) ;
#64 = PLANE ( 'NONE',  #187 ) ;
#65 = APPROVAL_DATE_TIME ( #112, #53 ) ;
#66 = CIRCLE ( 'NONE', #83, 0.7999999999999973799 ) ;
#67 = EDGE_LOOP ( 'NONE', ( #27 ) ) ;
#68 = COORDINATED_UNIVERSAL_TIME_OFFSET ( 1, 0, .AHEAD. ) ;
#69 = EDGE_LOOP ( 'NONE', ( #154 ) ) ;
#70 = DATE_AND_TIME ( #132, #146 ) ;
#71 = DIRECTION ( 'NONE',  ( -4.275831445896958607E-31, -1.000000000000000000, -1.224646799147353207E-16 ) ) ;
#72 = PERSON_AND_ORGANIZATION_ROLE ( 'classification_officer' ) ;
#73 = DIRECTION ( 'NONE',  ( -3.491481338843133355E-15, 1.224646799147353207E-16, -1.000000000000000000 ) ) ;
#74 = DATE_AND_TIME ( #15, #130 ) ;
#75 = PLANE ( 'NONE',  #174 ) ;
#76 = ADVANCED_FACE ( 'NONE', ( #157, #42 ), #12, .T. ) ;
#77 = DIRECTION ( 'NONE',  ( 4.275831445896958607E-31, 1.000000000000000000, 1.224646799147352961E-16 ) ) ;
#78 = CALENDAR_DATE ( 2021, 15, 11 ) ;
#79 = ORIENTED_EDGE ( 'NONE', *, *, #175, .T. ) ;
#80 = DESIGN_CONTEXT ( 'detailed design', #51, 'design' ) ;
#81 = PRODUCT_DEFINITION_SHAPE ( 'NONE', 'NONE',  #145 ) ;
#82 = APPLICATION_PROTOCOL_DEFINITION ( 'international standard', 'config_control_design', 1994, #51 ) ;
#83 = AXIS2_PLACEMENT_3D ( 'NONE', #186, #163, #46 ) ;
#84 = CC_DESIGN_PERSON_AND_ORGANIZATION_ASSIGNMENT ( #139, #40, ( #129 ) ) ;
#85 = CALENDAR_DATE ( 2021, 15, 11 ) ;
#86 = CARTESIAN_POINT ( 'NONE',  ( 0.0000000000000000000, 0.0000000000000000000, 0.0000000000000000000 ) ) ;
#87 = DIRECTION ( 'NONE',  ( 0.0000000000000000000, 1.000000000000000000, 0.0000000000000000000 ) ) ;
#88 = APPROVAL_STATUS ( 'not_yet_approved' ) ;
#89 = FACE_OUTER_BOUND ( 'NONE', #193, .T. ) ;
#90 = FACE_OUTER_BOUND ( 'NONE', #164, .T. ) ;
#91 = APPLICATION_CONTEXT ( 'configuration controlled 3d designs of mechanical parts and assemblies' ) ;
#92 = DIRECTION ( 'NONE',  ( -3.491481338843133355E-15, 1.224646799147353207E-16, -1.000000000000000000 ) ) ;
#93 = APPROVAL_STATUS ( 'not_yet_approved' ) ;
#94 = VERTEX_POINT ( 'NONE', #201 ) ;
#95 = APPROVAL_ROLE ( '' ) ;
#96 = ORIENTED_EDGE ( 'NONE', *, *, #110, .T. ) ;
#97 = DIRECTION ( 'NONE',  ( 1.000000000000000000, 0.0000000000000000000, 0.0000000000000000000 ) ) ;
#98 = CARTESIAN_POINT ( 'NONE',  ( 2.793185071074506684E-14, -9.797174393178825657E-16, 8.000000000000000000 ) ) ;
#99 = CARTESIAN_POINT ( 'NONE',  ( 2.793185071074506684E-14, 0.9999999999999988898, 8.000000000000000000 ) ) ;
#100 = PERSON ( 'UNSPECIFIED', 'UNSPECIFIED', 'UNSPECIFIED', ('UNSPECIFIED'), ('UNSPECIFIED'), ('UNSPECIFIED') ) ;
#101 = CARTESIAN_POINT ( 'NONE',  ( 0.0000000000000000000, 0.0000000000000000000, 0.0000000000000000000 ) ) ;
#102 = COORDINATED_UNIVERSAL_TIME_OFFSET ( 1, 0, .AHEAD. ) ;
#103 = FACE_OUTER_BOUND ( 'NONE', #183, .T. ) ;
#104 = ORGANIZATION ( 'UNSPECIFIED', 'UNSPECIFIED', '' ) ;
#105 = DIRECTION ( 'NONE',  ( 0.0000000000000000000, 1.000000000000000000, 0.0000000000000000000 ) ) ;
#106 = COORDINATED_UNIVERSAL_TIME_OFFSET ( 1, 0, .AHEAD. ) ;
#107 = DIRECTION ( 'NONE',  ( 3.491481338843133355E-15, -1.224646799147353207E-16, 1.000000000000000000 ) ) ;
#108 = CC_DESIGN_PERSON_AND_ORGANIZATION_ASSIGNMENT ( #14, #8, ( #129 ) ) ;
#109 = CLOSED_SHELL ( 'NONE', ( #191, #76, #124, #131 ) ) ;
#110 = EDGE_CURVE ( 'NONE', #195, #195, #119, .T. ) ;
#111 = CC_DESIGN_SECURITY_CLASSIFICATION ( #13, ( #129 ) ) ;
#112 = DATE_AND_TIME ( #141, #161 ) ;
#113 = AXIS2_PLACEMENT_3D ( 'NONE', #98, #181, #87 ) ;
#114 = EDGE_LOOP ( 'NONE', ( #200 ) ) ;
#115 = APPROVAL ( #56, 'UNSPECIFIED' ) ;
#116 = PERSON_AND_ORGANIZATION_ROLE ( 'design_owner' ) ;
#117 =( LENGTH_UNIT ( ) NAMED_UNIT ( * ) SI_UNIT ( .MILLI., .METRE. ) );
#118 = PLANE ( 'NONE',  #190 ) ;
#119 = CIRCLE ( 'NONE', #172, 1.000000000000000000 ) ;
#120 = ORIENTED_EDGE ( 'NONE', *, *, #43, .F. ) ;
#121 = PERSON_AND_ORGANIZATION ( #100, #104 ) ;
#122 =( NAMED_UNIT ( * ) PLANE_ANGLE_UNIT ( ) SI_UNIT ( $, .RADIAN. ) );
#123 = EDGE_LOOP ( 'NONE', ( #25 ) ) ;
#124 = ADVANCED_FACE ( 'NONE', ( #138, #61 ), #21, .T. ) ;
#125 = CARTESIAN_POINT ( 'NONE',  ( -4.275831445896957731E-31, 1.499759782661857608E-32, -1.224646799147353207E-16 ) ) ;
#126 = FACE_OUTER_BOUND ( 'NONE', #123, .T. ) ;
#127 = COORDINATED_UNIVERSAL_TIME_OFFSET ( 1, 0, .AHEAD. ) ;
#128 = CIRCLE ( 'NONE', #28, 0.9999999999999961142 ) ;
#129 = PRODUCT_DEFINITION_FORMATION_WITH_SPECIFIED_SOURCE ( 'ANY', '', #196, .NOT_KNOWN. ) ;
#130 = LOCAL_TIME ( 16, 37, 0.0000000000000000000, #102 ) ;
#131 = ADVANCED_FACE ( 'NONE', ( #103 ), #167, .F. ) ;
#132 = CALENDAR_DATE ( 2021, 15, 11 ) ;
#133 = PERSON_AND_ORGANIZATION ( #100, #104 ) ;
#134 = DIRECTION ( 'NONE',  ( 3.491481338843133355E-15, -1.224646799147353207E-16, 1.000000000000000000 ) ) ;
#135 = CARTESIAN_POINT ( 'NONE',  ( 2.793185071074506684E-14, 0.9999999999999988898, 8.000000000000000000 ) ) ;
#136 = ORIENTED_EDGE ( 'NONE', *, *, #175, .F. ) ;
#137 = MECHANICAL_CONTEXT ( 'NONE', #91, 'mechanical' ) ;
#138 = FACE_BOUND ( 'NONE', #38, .T. ) ;
#139 = PERSON_AND_ORGANIZATION ( #100, #104 ) ;
#140 = DIRECTION ( 'NONE',  ( -3.491481338843133355E-15, 1.224646799147353207E-16, -1.000000000000000000 ) ) ;
#141 = CALENDAR_DATE ( 2021, 15, 11 ) ;
#142 = DIRECTION ( 'NONE',  ( 4.275831445896958607E-31, 1.000000000000000000, 1.224646799147353207E-16 ) ) ;
#143 = CIRCLE ( 'NONE', #113, 1.000000000000000000 ) ;
#144 = EDGE_CURVE ( 'NONE', #147, #147, #128, .T. ) ;
#145 = PRODUCT_DEFINITION ( 'UNKNOWN', '', #129, #80 ) ;
#146 = LOCAL_TIME ( 16, 37, 0.0000000000000000000, #178 ) ;
#147 = VERTEX_POINT ( 'NONE', #29 ) ;
#148 = DATE_AND_TIME ( #85, #177 ) ;
#149 = CARTESIAN_POINT ( 'NONE',  ( 1.110291065752116407E-13, -3.894376821288583549E-15, 31.80000000000000071 ) ) ;
#150 = APPROVAL_ROLE ( '' ) ;
#151 = DIRECTION ( 'NONE',  ( -3.491481338843133355E-15, 1.224646799147353207E-16, -1.000000000000000000 ) ) ;
#152 = CARTESIAN_POINT ( 'NONE',  ( 8.552847072295026068E-47, 1.000000000000000000, 0.0000000000000000000 ) ) ;
#153 = AXIS2_PLACEMENT_3D ( 'NONE', #125, #92, #47 ) ;
#154 = ORIENTED_EDGE ( 'NONE', *, *, #144, .F. ) ;
#155 = DIRECTION ( 'NONE',  ( 4.275831445896958607E-31, 1.000000000000000000, 1.224646799147353207E-16 ) ) ;
#156 = PRODUCT_RELATED_PRODUCT_CATEGORY ( 'detail', '', ( #196 ) ) ;
#157 = FACE_OUTER_BOUND ( 'NONE', #67, .T. ) ;
#158 = CC_DESIGN_PERSON_AND_ORGANIZATION_ASSIGNMENT ( #133, #116, ( #196 ) ) ;
#159 =( GEOMETRIC_REPRESENTATION_CONTEXT ( 3 ) GLOBAL_UNCERTAINTY_ASSIGNED_CONTEXT ( ( #50 ) ) GLOBAL_UNIT_ASSIGNED_CONTEXT ( ( #117, #122, #184 ) ) REPRESENTATION_CONTEXT ( 'NONE', 'WORKASPACE' ) );
#160 = CC_DESIGN_APPROVAL ( #115, ( #129 ) ) ;
#161 = LOCAL_TIME ( 16, 37, 0.0000000000000000000, #127 ) ;
#162 = CARTESIAN_POINT ( 'NONE',  ( 0.0000000000000000000, 0.0000000000000000000, 0.0000000000000000000 ) ) ;
#163 = DIRECTION ( 'NONE',  ( -3.491481338843133355E-15, 1.224646799147353207E-16, -1.000000000000000000 ) ) ;
#164 = EDGE_LOOP ( 'NONE', ( #96 ) ) ;
#165 = CARTESIAN_POINT ( 'NONE',  ( 2.793185071074506684E-14, -9.797174393178825657E-16, 8.000000000000000000 ) ) ;
#166 = CC_DESIGN_DATE_AND_TIME_ASSIGNMENT ( #168, #170, ( #13 ) ) ;
#167 = PLANE ( 'NONE',  #198 ) ;
#168 = DATE_AND_TIME ( #78, #5 ) ;
#169 = DIRECTION ( 'NONE',  ( -3.491481338843133355E-15, 1.224646799147353207E-16, -1.000000000000000000 ) ) ;
#170 = DATE_TIME_ROLE ( 'classification_date' ) ;
#171 = DIRECTION ( 'NONE',  ( -4.275831445896958607E-31, -1.000000000000000000, -1.224646799147353207E-16 ) ) ;
#172 = AXIS2_PLACEMENT_3D ( 'NONE', #165, #73, #105 ) ;
#173 = SHAPE_DEFINITION_REPRESENTATION ( #81, #10 ) ;
#174 = AXIS2_PLACEMENT_3D ( 'NONE', #59, #32, #188 ) ;
#175 = EDGE_CURVE ( 'NONE', #6, #6, #1, .T. ) ;
#176 = EDGE_LOOP ( 'NONE', ( #136 ) ) ;
#177 = LOCAL_TIME ( 16, 37, 0.0000000000000000000, #68 ) ;
#178 = COORDINATED_UNIVERSAL_TIME_OFFSET ( 1, 0, .AHEAD. ) ;
#179 = PERSON_AND_ORGANIZATION_ROLE ( 'creator' ) ;
#180 = MANIFOLD_SOLID_BREP ( 'Corps-Déplacer/Copier1[2]', #52 ) ;
#181 = DIRECTION ( 'NONE',  ( -3.491481338843133355E-15, 1.224646799147353207E-16, -1.000000000000000000 ) ) ;
#182 = APPROVAL_DATE_TIME ( #148, #115 ) ;
#183 = EDGE_LOOP ( 'NONE', ( #120 ) ) ;
#184 =( NAMED_UNIT ( * ) SI_UNIT ( $, .STERADIAN. ) SOLID_ANGLE_UNIT ( ) );
#185 = FACE_OUTER_BOUND ( 'NONE', #176, .T. ) ;
#186 = CARTESIAN_POINT ( 'NONE',  ( 1.117274028429802674E-13, -3.918869757271530263E-15, 32.00000000000000000 ) ) ;
#187 = AXIS2_PLACEMENT_3D ( 'NONE', #189, #107, #171 ) ;
#188 = DIRECTION ( 'NONE',  ( 4.275831445896958607E-31, 1.000000000000000000, 1.224646799147353207E-16 ) ) ;
#189 = CARTESIAN_POINT ( 'NONE',  ( 2.793185071074506684E-14, 7.498798913309274355E-33, 8.000000000000000000 ) ) ;
#190 = AXIS2_PLACEMENT_3D ( 'NONE', #41, #134, #71 ) ;
#191 = ADVANCED_FACE ( 'NONE', ( #126 ), #64, .F. ) ;
#192 = APPROVAL ( #88, 'UNSPECIFIED' ) ;
#193 = EDGE_LOOP ( 'NONE', ( #79 ) ) ;
#194 = PERSON_AND_ORGANIZATION ( #100, #104 ) ;
#195 = VERTEX_POINT ( 'NONE', #99 ) ;
#196 = PRODUCT ( '32944', '32944', '', ( #137 ) ) ;
#197 = DIRECTION ( 'NONE',  ( -3.491481338843133355E-15, 1.224646799147353207E-16, -1.000000000000000000 ) ) ;
#198 = AXIS2_PLACEMENT_3D ( 'NONE', #30, #140, #142 ) ;
#199 = SECURITY_CLASSIFICATION_LEVEL ( 'unclassified' ) ;
#200 = ORIENTED_EDGE ( 'NONE', *, *, #110, .F. ) ;
#201 = CARTESIAN_POINT ( 'NONE',  ( 1.117274028429802674E-13, 0.7999999999999933831, 32.00000000000000000 ) ) ;
#202 = FACE_OUTER_BOUND ( 'NONE', #114, .T. ) ;
#203 = DIRECTION ( 'NONE',  ( 0.0000000000000000000, 1.000000000000000000, 0.0000000000000000000 ) ) ;
ENDSEC;
END-ISO-10303-21;
