ISO-10303-21;
HEADER;
FILE_DESCRIPTION (( 'STEP AP203' ),
    '1' );
FILE_NAME ('32871.step',
    '2021-10-15T13:34:39',
    ( '' ),
    ( '' ),
    'SwSTEP 2.0',
    'SolidWorks 2019',
    '' );
FILE_SCHEMA (( 'CONFIG_CONTROL_DESIGN' ));
ENDSEC;

DATA;
#1 = EDGE_LOOP ( 'NONE', ( #132 ) ) ;
#2 =( LENGTH_UNIT ( ) NAMED_UNIT ( * ) SI_UNIT ( .MILLI., .METRE. ) );
#3 = APPROVAL_PERSON_ORGANIZATION ( #120, #65, #153 ) ;
#4 = APPLICATION_PROTOCOL_DEFINITION ( 'international standard', 'config_control_design', 1994, #128 ) ;
#5 = CONICAL_SURFACE ( 'NONE', #189, 2.149999999999993250, 1.221730476396026388 ) ;
#6 = CARTESIAN_POINT ( 'NONE',  ( 8.379555213223520053E-14, 1.612241766361489539E-32, 24.00000000000000000 ) ) ;
#7 = PERSON_AND_ORGANIZATION ( #72, #85 ) ;
#8 = DIRECTION ( 'NONE',  ( -4.275831445896958607E-31, -1.000000000000000000, -1.224646799147353207E-16 ) ) ;
#9 = EDGE_CURVE ( 'NONE', #141, #141, #135, .T. ) ;
#10 = APPROVAL_DATE_TIME ( #89, #151 ) ;
#11 = CC_DESIGN_SECURITY_CLASSIFICATION ( #115, ( #75 ) ) ;
#12 = PRODUCT_DEFINITION_SHAPE ( 'NONE', 'NONE',  #94 ) ;
#13 = FACE_BOUND ( 'NONE', #202, .T. ) ;
#14 = APPROVAL_PERSON_ORGANIZATION ( #16, #108, #125 ) ;
#15 = CARTESIAN_POINT ( 'NONE',  ( 0.0000000000000000000, 0.0000000000000000000, 0.0000000000000000000 ) ) ;
#16 = PERSON_AND_ORGANIZATION ( #72, #85 ) ;
#17 = COORDINATED_UNIVERSAL_TIME_OFFSET ( 1, 0, .AHEAD. ) ;
#18 = ADVANCED_FACE ( 'NONE', ( #185, #46 ), #110, .T. ) ;
#19 = ORIENTED_EDGE ( 'NONE', *, *, #9, .T. ) ;
#20 =( GEOMETRIC_REPRESENTATION_CONTEXT ( 3 ) GLOBAL_UNCERTAINTY_ASSIGNED_CONTEXT ( ( #179 ) ) GLOBAL_UNIT_ASSIGNED_CONTEXT ( ( #2, #134, #163 ) ) REPRESENTATION_CONTEXT ( 'NONE', 'WORKASPACE' ) );
#21 = LOCAL_TIME ( 15, 34, 39.00000000000000000, #17 ) ;
#22 = VERTEX_POINT ( 'NONE', #83 ) ;
#23 = CC_DESIGN_PERSON_AND_ORGANIZATION_ASSIGNMENT ( #137, #192, ( #75 ) ) ;
#24 = AXIS2_PLACEMENT_3D ( 'NONE', #15, #35, #99 ) ;
#25 = PLANE ( 'NONE',  #142 ) ;
#26 = PERSON_AND_ORGANIZATION ( #72, #85 ) ;
#27 = CC_DESIGN_PERSON_AND_ORGANIZATION_ASSIGNMENT ( #26, #41, ( #44 ) ) ;
#28 = DIRECTION ( 'NONE',  ( 0.0000000000000000000, 1.000000000000000000, 0.0000000000000000000 ) ) ;
#29 = LOCAL_TIME ( 15, 34, 39.00000000000000000, #70 ) ;
#30 = ORIENTED_EDGE ( 'NONE', *, *, #169, .T. ) ;
#31 = AXIS2_PLACEMENT_3D ( 'NONE', #130, #168, #8 ) ;
#32 = CIRCLE ( 'NONE', #48, 2.149999999999995914 ) ;
#33 = EDGE_LOOP ( 'NONE', ( #129 ) ) ;
#34 = ADVANCED_FACE ( 'NONE', ( #146 ), #203, .T. ) ;
#35 = DIRECTION ( 'NONE',  ( -3.491481338843133355E-15, 1.224646799147353207E-16, -1.000000000000000000 ) ) ;
#36 = CARTESIAN_POINT ( 'NONE',  ( 8.379555213223520053E-14, -2.939152317953647894E-15, 24.00000000000000000 ) ) ;
#37 = VERTEX_POINT ( 'NONE', #90 ) ;
#38 = ADVANCED_FACE ( 'NONE', ( #68, #13 ), #170, .T. ) ;
#39 = AXIS2_PLACEMENT_3D ( 'NONE', #91, #60, #80 ) ;
#40 = DIRECTION ( 'NONE',  ( -3.583125477929752304E-31, -1.000000000000000000, -1.008560160451635179E-16 ) ) ;
#41 = PERSON_AND_ORGANIZATION_ROLE ( 'design_owner' ) ;
#42 = DATE_TIME_ROLE ( 'creation_date' ) ;
#43 = CARTESIAN_POINT ( 'NONE',  ( 2.025059176529017346E-13, -7.102951435054648059E-15, 58.00000000000000000 ) ) ;
#44 = PRODUCT ( '32871', '32871', '', ( #155 ) ) ;
#45 = SECURITY_CLASSIFICATION_LEVEL ( 'unclassified' ) ;
#46 = FACE_OUTER_BOUND ( 'NONE', #186, .T. ) ;
#47 = ORIENTED_EDGE ( 'NONE', *, *, #169, .F. ) ;
#48 = AXIS2_PLACEMENT_3D ( 'NONE', #36, #191, #154 ) ;
#49 = CARTESIAN_POINT ( 'NONE',  ( 8.379555213223520053E-14, -2.939152317953647894E-15, 24.00000000000000000 ) ) ;
#50 = DIRECTION ( 'NONE',  ( -3.491481338843133355E-15, 1.224646799147353207E-16, -1.000000000000000000 ) ) ;
#51 = CC_DESIGN_APPROVAL ( #108, ( #115 ) ) ;
#52 = DIRECTION ( 'NONE',  ( 1.000000000000000000, 0.0000000000000000000, 0.0000000000000000000 ) ) ;
#53 = CALENDAR_DATE ( 2021, 15, 10 ) ;
#54 = CARTESIAN_POINT ( 'NONE',  ( 2.025059176529017346E-13, 1.237301820696021853E-32, 58.00000000000000000 ) ) ;
#55 = LOCAL_TIME ( 15, 34, 39.00000000000000000, #165 ) ;
#56 = SHAPE_DEFINITION_REPRESENTATION ( #12, #86 ) ;
#57 = CC_DESIGN_DATE_AND_TIME_ASSIGNMENT ( #119, #42, ( #94 ) ) ;
#58 = APPROVAL_DATE_TIME ( #109, #108 ) ;
#59 = DIRECTION ( 'NONE',  ( -3.491481338843133355E-15, 1.224646799147353207E-16, -1.000000000000000000 ) ) ;
#60 = DIRECTION ( 'NONE',  ( -3.491481338843133355E-15, 1.224646799147353207E-16, -1.000000000000000000 ) ) ;
#61 = LOCAL_TIME ( 15, 34, 39.00000000000000000, #101 ) ;
#62 = CC_DESIGN_PERSON_AND_ORGANIZATION_ASSIGNMENT ( #158, #121, ( #115 ) ) ;
#63 = DATE_AND_TIME ( #84, #61 ) ;
#64 = AXIS2_PLACEMENT_3D ( 'NONE', #98, #180, #100 ) ;
#65 = APPROVAL ( #167, 'UNSPECIFIED' ) ;
#66 = DIRECTION ( 'NONE',  ( 3.491481338843133355E-15, -1.224646799147353207E-16, 1.000000000000000000 ) ) ;
#67 = APPROVAL_ROLE ( '' ) ;
#68 = FACE_OUTER_BOUND ( 'NONE', #33, .T. ) ;
#69 = DESIGN_CONTEXT ( 'detailed design', #128, 'design' ) ;
#70 = COORDINATED_UNIVERSAL_TIME_OFFSET ( 1, 0, .AHEAD. ) ;
#71 = CALENDAR_DATE ( 2021, 15, 10 ) ;
#72 = PERSON ( 'UNSPECIFIED', 'UNSPECIFIED', 'UNSPECIFIED', ('UNSPECIFIED'), ('UNSPECIFIED'), ('UNSPECIFIED') ) ;
#73 = APPLICATION_CONTEXT ( 'configuration controlled 3d designs of mechanical parts and assemblies' ) ;
#74 = DIRECTION ( 'NONE',  ( -3.491481338843133355E-15, 1.224646799147353207E-16, -1.000000000000000000 ) ) ;
#75 = PRODUCT_DEFINITION_FORMATION_WITH_SPECIFIED_SOURCE ( 'ANY', '', #44, .NOT_KNOWN. ) ;
#76 = PLANE ( 'NONE',  #198 ) ;
#77 = PERSON_AND_ORGANIZATION_ROLE ( 'design_supplier' ) ;
#78 = APPROVAL_STATUS ( 'not_yet_approved' ) ;
#79 = ORIENTED_EDGE ( 'NONE', *, *, #174, .F. ) ;
#80 = DIRECTION ( 'NONE',  ( 4.275831445896959482E-31, 1.000000000000000000, 1.224646799147353207E-16 ) ) ;
#81 = EDGE_LOOP ( 'NONE', ( #30 ) ) ;
#82 = EDGE_LOOP ( 'NONE', ( #96 ) ) ;
#83 = CARTESIAN_POINT ( 'NONE',  ( 8.379555213223520053E-14, 2.149999999999993250, 24.00000000000000000 ) ) ;
#84 = CALENDAR_DATE ( 2021, 15, 10 ) ;
#85 = ORGANIZATION ( 'UNSPECIFIED', 'UNSPECIFIED', '' ) ;
#86 = ADVANCED_BREP_SHAPE_REPRESENTATION ( '32871', ( #172, #111, #161 ), #20 ) ;
#87 = PERSON_AND_ORGANIZATION ( #72, #85 ) ;
#88 = CARTESIAN_POINT ( 'NONE',  ( 2.732209853794866567E-15, -9.583302121148960481E-17, 0.7825360036723428836 ) ) ;
#89 = DATE_AND_TIME ( #71, #55 ) ;
#90 = CARTESIAN_POINT ( 'NONE',  ( 2.007601769834801742E-13, 2.149999999999993250, 57.50000000000000000 ) ) ;
#91 = CARTESIAN_POINT ( 'NONE',  ( 0.0000000000000000000, 0.0000000000000000000, 0.0000000000000000000 ) ) ;
#92 = CIRCLE ( 'NONE', #182, 2.149999999999999911 ) ;
#93 = EDGE_LOOP ( 'NONE', ( #173 ) ) ;
#94 = PRODUCT_DEFINITION ( 'UNKNOWN', '', #75, #69 ) ;
#95 = DIRECTION ( 'NONE',  ( 0.0000000000000000000, 1.000000000000000000, 0.0000000000000000000 ) ) ;
#96 = ORIENTED_EDGE ( 'NONE', *, *, #181, .F. ) ;
#97 = VERTEX_POINT ( 'NONE', #162 ) ;
#98 = CARTESIAN_POINT ( 'NONE',  ( 2.732209853794866567E-15, -9.583302121148960481E-17, 0.7825360036723428836 ) ) ;
#99 = DIRECTION ( 'NONE',  ( 4.275831445896958607E-31, 1.000000000000000000, 1.224646799147353207E-16 ) ) ;
#100 = DIRECTION ( 'NONE',  ( 3.583125477929752304E-31, 1.000000000000000000, 1.008560160451635179E-16 ) ) ;
#101 = COORDINATED_UNIVERSAL_TIME_OFFSET ( 1, 0, .AHEAD. ) ;
#102 = ADVANCED_FACE ( 'NONE', ( #136, #114 ), #195, .T. ) ;
#103 = AXIS2_PLACEMENT_3D ( 'NONE', #49, #74, #122 ) ;
#104 = ADVANCED_FACE ( 'NONE', ( #157 ), #76, .F. ) ;
#105 = DIRECTION ( 'NONE',  ( 3.491481338843133355E-15, -1.224646799147353207E-16, 1.000000000000000000 ) ) ;
#106 = DIRECTION ( 'NONE',  ( 0.0000000000000000000, 0.0000000000000000000, 1.000000000000000000 ) ) ;
#107 = COORDINATED_UNIVERSAL_TIME_OFFSET ( 1, 0, .AHEAD. ) ;
#108 = APPROVAL ( #78, 'UNSPECIFIED' ) ;
#109 = DATE_AND_TIME ( #184, #21 ) ;
#110 = CYLINDRICAL_SURFACE ( 'NONE', #39, 2.149999999999994582 ) ;
#111 = MANIFOLD_SOLID_BREP ( 'Corps-Déplacer/Copier1[2]', #188 ) ;
#112 = CC_DESIGN_APPROVAL ( #151, ( #94 ) ) ;
#113 = VERTEX_POINT ( 'NONE', #175 ) ;
#114 = FACE_OUTER_BOUND ( 'NONE', #1, .T. ) ;
#115 = SECURITY_CLASSIFICATION ( '', '', #45 ) ;
#116 = DIRECTION ( 'NONE',  ( -3.491481338843133355E-15, 1.224646799147353207E-16, -1.000000000000000000 ) ) ;
#117 = APPLICATION_PROTOCOL_DEFINITION ( 'international standard', 'config_control_design', 1994, #73 ) ;
#118 = ADVANCED_FACE ( 'NONE', ( #176 ), #25, .F. ) ;
#119 = DATE_AND_TIME ( #53, #29 ) ;
#120 = PERSON_AND_ORGANIZATION ( #72, #85 ) ;
#121 = PERSON_AND_ORGANIZATION_ROLE ( 'classification_officer' ) ;
#122 = DIRECTION ( 'NONE',  ( 0.0000000000000000000, 1.000000000000000000, 0.0000000000000000000 ) ) ;
#123 = CIRCLE ( 'NONE', #103, 2.149999999999995914 ) ;
#124 = CARTESIAN_POINT ( 'NONE',  ( 0.0000000000000000000, 0.0000000000000000000, 0.0000000000000000000 ) ) ;
#125 = APPROVAL_ROLE ( '' ) ;
#126 = ADVANCED_FACE ( 'NONE', ( #164 ), #5, .T. ) ;
#127 = CALENDAR_DATE ( 2021, 15, 10 ) ;
#128 = APPLICATION_CONTEXT ( 'configuration controlled 3d designs of mechanical parts and assemblies' ) ;
#129 = ORIENTED_EDGE ( 'NONE', *, *, #145, .F. ) ;
#130 = CARTESIAN_POINT ( 'NONE',  ( 8.379555213223520053E-14, 1.612241766361489539E-32, 24.00000000000000000 ) ) ;
#131 = CLOSED_SHELL ( 'NONE', ( #104, #102, #38, #118 ) ) ;
#132 = ORIENTED_EDGE ( 'NONE', *, *, #145, .T. ) ;
#133 = CARTESIAN_POINT ( 'NONE',  ( 2.025059176529017346E-13, -7.102951435054648059E-15, 58.00000000000000000 ) ) ;
#134 =( NAMED_UNIT ( * ) PLANE_ANGLE_UNIT ( ) SI_UNIT ( $, .RADIAN. ) );
#135 = CIRCLE ( 'NONE', #160, 1.650000000000000133 ) ;
#136 = FACE_OUTER_BOUND ( 'NONE', #159, .T. ) ;
#137 = PERSON_AND_ORGANIZATION ( #72, #85 ) ;
#138 = LOCAL_TIME ( 15, 34, 39.00000000000000000, #107 ) ;
#139 = APPROVAL_STATUS ( 'not_yet_approved' ) ;
#140 = DIRECTION ( 'NONE',  ( 0.0000000000000000000, 1.000000000000000000, 0.0000000000000000000 ) ) ;
#141 = VERTEX_POINT ( 'NONE', #183 ) ;
#142 = AXIS2_PLACEMENT_3D ( 'NONE', #54, #199, #193 ) ;
#143 = CC_DESIGN_PERSON_AND_ORGANIZATION_ASSIGNMENT ( #87, #194, ( #94 ) ) ;
#144 = ORIENTED_EDGE ( 'NONE', *, *, #9, .F. ) ;
#145 = EDGE_CURVE ( 'NONE', #37, #37, #92, .T. ) ;
#146 = FACE_OUTER_BOUND ( 'NONE', #82, .T. ) ;
#147 = ORIENTED_EDGE ( 'NONE', *, *, #181, .T. ) ;
#148 = EDGE_LOOP ( 'NONE', ( #144 ) ) ;
#149 = CC_DESIGN_DATE_AND_TIME_ASSIGNMENT ( #200, #156, ( #115 ) ) ;
#150 = APPROVAL_PERSON_ORGANIZATION ( #7, #151, #67 ) ;
#151 = APPROVAL ( #139, 'UNSPECIFIED' ) ;
#152 = CARTESIAN_POINT ( 'NONE',  ( 2.007601769834801742E-13, -7.041719095097280485E-15, 57.50000000000000000 ) ) ;
#153 = APPROVAL_ROLE ( '' ) ;
#154 = DIRECTION ( 'NONE',  ( 0.0000000000000000000, 1.000000000000000000, 0.0000000000000000000 ) ) ;
#155 = MECHANICAL_CONTEXT ( 'NONE', #73, 'mechanical' ) ;
#156 = DATE_TIME_ROLE ( 'classification_date' ) ;
#157 = FACE_OUTER_BOUND ( 'NONE', #93, .T. ) ;
#158 = PERSON_AND_ORGANIZATION ( #72, #85 ) ;
#159 = EDGE_LOOP ( 'NONE', ( #79 ) ) ;
#160 = AXIS2_PLACEMENT_3D ( 'NONE', #133, #59, #95 ) ;
#161 = AXIS2_PLACEMENT_3D ( 'NONE', #124, #106, #52 ) ;
#162 = CARTESIAN_POINT ( 'NONE',  ( 8.379555213223520053E-14, 2.149999999999993250, 24.00000000000000000 ) ) ;
#163 =( NAMED_UNIT ( * ) SI_UNIT ( $, .STERADIAN. ) SOLID_ANGLE_UNIT ( ) );
#164 = FACE_OUTER_BOUND ( 'NONE', #81, .T. ) ;
#165 = COORDINATED_UNIVERSAL_TIME_OFFSET ( 1, 0, .AHEAD. ) ;
#166 = CC_DESIGN_APPROVAL ( #65, ( #75 ) ) ;
#167 = APPROVAL_STATUS ( 'not_yet_approved' ) ;
#168 = DIRECTION ( 'NONE',  ( 3.491481338843133355E-15, -1.224646799147353207E-16, 1.000000000000000000 ) ) ;
#169 = EDGE_CURVE ( 'NONE', #113, #113, #171, .T. ) ;
#170 = CONICAL_SURFACE ( 'NONE', #197, 1.650000000000000133, 0.7853981633974476129 ) ;
#171 = CIRCLE ( 'NONE', #64, 2.149999999999993250 ) ;
#172 = MANIFOLD_SOLID_BREP ( 'Corps-Déplacer/Copier1[1]', #131 ) ;
#173 = ORIENTED_EDGE ( 'NONE', *, *, #174, .T. ) ;
#174 = EDGE_CURVE ( 'NONE', #97, #97, #32, .T. ) ;
#175 = CARTESIAN_POINT ( 'NONE',  ( 2.732209853794867356E-15, 2.149999999999993250, 0.7825360036723429946 ) ) ;
#176 = FACE_OUTER_BOUND ( 'NONE', #148, .T. ) ;
#177 = DIRECTION ( 'NONE',  ( -4.275831445896958607E-31, -1.000000000000000000, -1.224646799147353207E-16 ) ) ;
#178 = PERSON_AND_ORGANIZATION ( #72, #85 ) ;
#179 = UNCERTAINTY_MEASURE_WITH_UNIT (LENGTH_MEASURE( 1.000000000000000082E-05 ), #2, 'distance_accuracy_value', 'NONE');
#180 = DIRECTION ( 'NONE',  ( -3.491481338843133355E-15, 1.224646799147353207E-16, -1.000000000000000000 ) ) ;
#181 = EDGE_CURVE ( 'NONE', #22, #22, #123, .T. ) ;
#182 = AXIS2_PLACEMENT_3D ( 'NONE', #152, #50, #28 ) ;
#183 = CARTESIAN_POINT ( 'NONE',  ( 2.025059176529017346E-13, 1.649999999999993028, 58.00000000000000000 ) ) ;
#184 = CALENDAR_DATE ( 2021, 15, 10 ) ;
#185 = FACE_OUTER_BOUND ( 'NONE', #187, .T. ) ;
#186 = EDGE_LOOP ( 'NONE', ( #147 ) ) ;
#187 = EDGE_LOOP ( 'NONE', ( #47 ) ) ;
#188 = CLOSED_SHELL ( 'NONE', ( #126, #18, #34 ) ) ;
#189 = AXIS2_PLACEMENT_3D ( 'NONE', #88, #105, #40 ) ;
#190 = APPROVAL_DATE_TIME ( #63, #65 ) ;
#191 = DIRECTION ( 'NONE',  ( -3.491481338843133355E-15, 1.224646799147353207E-16, -1.000000000000000000 ) ) ;
#192 = PERSON_AND_ORGANIZATION_ROLE ( 'creator' ) ;
#193 = DIRECTION ( 'NONE',  ( 4.275831445896958607E-31, 1.000000000000000000, 1.224646799147353207E-16 ) ) ;
#194 = PERSON_AND_ORGANIZATION_ROLE ( 'creator' ) ;
#195 = CYLINDRICAL_SURFACE ( 'NONE', #24, 2.149999999999998135 ) ;
#196 = CC_DESIGN_PERSON_AND_ORGANIZATION_ASSIGNMENT ( #178, #77, ( #75 ) ) ;
#197 = AXIS2_PLACEMENT_3D ( 'NONE', #43, #116, #140 ) ;
#198 = AXIS2_PLACEMENT_3D ( 'NONE', #6, #66, #177 ) ;
#199 = DIRECTION ( 'NONE',  ( -3.491481338843133355E-15, 1.224646799147353207E-16, -1.000000000000000000 ) ) ;
#200 = DATE_AND_TIME ( #127, #138 ) ;
#201 = PRODUCT_RELATED_PRODUCT_CATEGORY ( 'detail', '', ( #44 ) ) ;
#202 = EDGE_LOOP ( 'NONE', ( #19 ) ) ;
#203 = PLANE ( 'NONE',  #31 ) ;
ENDSEC;
END-ISO-10303-21;
