ISO-10303-21;
HEADER;
FILE_DESCRIPTION (( 'STEP AP203' ),
    '1' );
FILE_NAME ('32862.step',
    '2021-10-15T13:34:38',
    ( '' ),
    ( '' ),
    'SwSTEP 2.0',
    'SolidWorks 2019',
    '' );
FILE_SCHEMA (( 'CONFIG_CONTROL_DESIGN' ));
ENDSEC;

DATA;
#1 = COORDINATED_UNIVERSAL_TIME_OFFSET ( 1, 0, .AHEAD. ) ;
#2 = CIRCLE ( 'NONE', #131, 2.299999999999994493 ) ;
#3 = AXIS2_PLACEMENT_3D ( 'NONE', #28, #27, #92 ) ;
#4 = MANIFOLD_SOLID_BREP ( 'Corps-Déplacer/Copier1[2]', #49 ) ;
#5 = CLOSED_SHELL ( 'NONE', ( #26, #22, #114, #81 ) ) ;
#6 = CYLINDRICAL_SURFACE ( 'NONE', #96, 2.299999999999996270 ) ;
#7 = CARTESIAN_POINT ( 'NONE',  ( 8.379555213223520053E-14, 1.724723750061127491E-32, 24.00000000000000000 ) ) ;
#8 = EDGE_CURVE ( 'NONE', #182, #182, #197, .T. ) ;
#9 = CARTESIAN_POINT ( 'NONE',  ( 2.025059176529017346E-13, -7.102951435054648059E-15, 58.00000000000000000 ) ) ;
#10 = CIRCLE ( 'NONE', #72, 2.299999999999998046 ) ;
#11 = DIRECTION ( 'NONE',  ( -4.275831445896958607E-31, -1.000000000000000000, -1.224646799147353207E-16 ) ) ;
#12 = VERTEX_POINT ( 'NONE', #185 ) ;
#13 = DATE_AND_TIME ( #44, #187 ) ;
#14 = PERSON_AND_ORGANIZATION_ROLE ( 'design_owner' ) ;
#15 = PERSON_AND_ORGANIZATION ( #183, #25 ) ;
#16 = AXIS2_PLACEMENT_3D ( 'NONE', #74, #171, #117 ) ;
#17 = MECHANICAL_CONTEXT ( 'NONE', #150, 'mechanical' ) ;
#18 = EDGE_LOOP ( 'NONE', ( #166 ) ) ;
#19 = CC_DESIGN_APPROVAL ( #142, ( #90 ) ) ;
#20 = ORIENTED_EDGE ( 'NONE', *, *, #53, .T. ) ;
#21 = DIRECTION ( 'NONE',  ( -3.491481338843133355E-15, 1.224646799147353207E-16, -1.000000000000000000 ) ) ;
#22 = ADVANCED_FACE ( 'NONE', ( #23, #86 ), #6, .T. ) ;
#23 = FACE_OUTER_BOUND ( 'NONE', #164, .T. ) ;
#24 = CONICAL_SURFACE ( 'NONE', #16, 2.299999999999991385, 1.221730476396026610 ) ;
#25 = ORGANIZATION ( 'UNSPECIFIED', 'UNSPECIFIED', '' ) ;
#26 = ADVANCED_FACE ( 'NONE', ( #130 ), #193, .F. ) ;
#27 = DIRECTION ( 'NONE',  ( -3.491481338843133355E-15, 1.224646799147353207E-16, -1.000000000000000000 ) ) ;
#28 = CARTESIAN_POINT ( 'NONE',  ( 2.025059176529017346E-13, 1.349783804395659805E-32, 58.00000000000000000 ) ) ;
#29 = APPROVAL_PERSON_ORGANIZATION ( #110, #122, #65 ) ;
#30 = APPROVAL_STATUS ( 'not_yet_approved' ) ;
#31 = PERSON_AND_ORGANIZATION ( #183, #25 ) ;
#32 = DATE_AND_TIME ( #127, #111 ) ;
#33 = APPROVAL_ROLE ( '' ) ;
#34 = CC_DESIGN_DATE_AND_TIME_ASSIGNMENT ( #46, #109, ( #180 ) ) ;
#35 = ORIENTED_EDGE ( 'NONE', *, *, #8, .F. ) ;
#36 = LOCAL_TIME ( 15, 34, 38.00000000000000000, #188 ) ;
#37 = CARTESIAN_POINT ( 'NONE',  ( 0.0000000000000000000, 0.0000000000000000000, 0.0000000000000000000 ) ) ;
#38 = DIRECTION ( 'NONE',  ( 0.0000000000000000000, 1.000000000000000000, 0.0000000000000000000 ) ) ;
#39 = EDGE_LOOP ( 'NONE', ( #101 ) ) ;
#40 = FACE_BOUND ( 'NONE', #52, .T. ) ;
#41 = CARTESIAN_POINT ( 'NONE',  ( 8.379555213223520053E-14, 2.299999999999991385, 24.00000000000000000 ) ) ;
#42 = CARTESIAN_POINT ( 'NONE',  ( 2.007601769834801490E-13, 2.299999999999991385, 57.49999999999999289 ) ) ;
#43 = CARTESIAN_POINT ( 'NONE',  ( 2.922829145920087880E-15, -1.025190459471748604E-16, 0.8371315388122732015 ) ) ;
#44 = CALENDAR_DATE ( 2021, 15, 10 ) ;
#45 = ADVANCED_FACE ( 'NONE', ( #156 ), #24, .T. ) ;
#46 = DATE_AND_TIME ( #47, #153 ) ;
#47 = CALENDAR_DATE ( 2021, 15, 10 ) ;
#48 = CALENDAR_DATE ( 2021, 15, 10 ) ;
#49 = CLOSED_SHELL ( 'NONE', ( #45, #146, #60 ) ) ;
#50 = EDGE_LOOP ( 'NONE', ( #83 ) ) ;
#51 = UNCERTAINTY_MEASURE_WITH_UNIT (LENGTH_MEASURE( 1.000000000000000082E-05 ), #136, 'distance_accuracy_value', 'NONE');
#52 = EDGE_LOOP ( 'NONE', ( #20 ) ) ;
#53 = EDGE_CURVE ( 'NONE', #12, #12, #147, .T. ) ;
#54 = AXIS2_PLACEMENT_3D ( 'NONE', #102, #91, #71 ) ;
#55 = CARTESIAN_POINT ( 'NONE',  ( 8.379555213223520053E-14, 1.724723750061127491E-32, 24.00000000000000000 ) ) ;
#56 = CARTESIAN_POINT ( 'NONE',  ( 2.922829145920089063E-15, 2.299999999999991385, 0.8371315388122735346 ) ) ;
#57 = AXIS2_PLACEMENT_3D ( 'NONE', #55, #169, #11 ) ;
#58 = CARTESIAN_POINT ( 'NONE',  ( 2.007601769834801490E-13, -7.041719095097280485E-15, 57.49999999999999289 ) ) ;
#59 = CARTESIAN_POINT ( 'NONE',  ( 0.0000000000000000000, 0.0000000000000000000, 0.0000000000000000000 ) ) ;
#60 = ADVANCED_FACE ( 'NONE', ( #158 ), #135, .T. ) ;
#61 = PLANE ( 'NONE',  #3 ) ;
#62 = SECURITY_CLASSIFICATION_LEVEL ( 'unclassified' ) ;
#63 = PERSON_AND_ORGANIZATION_ROLE ( 'creator' ) ;
#64 = PERSON_AND_ORGANIZATION_ROLE ( 'classification_officer' ) ;
#65 = APPROVAL_ROLE ( '' ) ;
#66 = EDGE_LOOP ( 'NONE', ( #97 ) ) ;
#67 = CARTESIAN_POINT ( 'NONE',  ( 8.379555213223520053E-14, -2.939152317953647894E-15, 24.00000000000000000 ) ) ;
#68 = CC_DESIGN_APPROVAL ( #70, ( #137 ) ) ;
#69 = MANIFOLD_SOLID_BREP ( 'Corps-Déplacer/Copier1[1]', #5 ) ;
#70 = APPROVAL ( #186, 'UNSPECIFIED' ) ;
#71 = DIRECTION ( 'NONE',  ( 0.0000000000000000000, 1.000000000000000000, 0.0000000000000000000 ) ) ;
#72 = AXIS2_PLACEMENT_3D ( 'NONE', #58, #132, #195 ) ;
#73 = FACE_OUTER_BOUND ( 'NONE', #192, .T. ) ;
#74 = CARTESIAN_POINT ( 'NONE',  ( 2.922829145920087880E-15, -1.025190459471748604E-16, 0.8371315388122732015 ) ) ;
#75 = CC_DESIGN_APPROVAL ( #122, ( #180 ) ) ;
#76 = DATE_TIME_ROLE ( 'creation_date' ) ;
#77 = PERSON_AND_ORGANIZATION ( #183, #25 ) ;
#78 = COORDINATED_UNIVERSAL_TIME_OFFSET ( 1, 0, .AHEAD. ) ;
#79 = CIRCLE ( 'NONE', #173, 2.299999999999991385 ) ;
#80 = PERSON_AND_ORGANIZATION ( #183, #25 ) ;
#81 = ADVANCED_FACE ( 'NONE', ( #119 ), #61, .F. ) ;
#82 = ORIENTED_EDGE ( 'NONE', *, *, #53, .F. ) ;
#83 = ORIENTED_EDGE ( 'NONE', *, *, #84, .F. ) ;
#84 = EDGE_CURVE ( 'NONE', #196, #196, #2, .T. ) ;
#85 = ORIENTED_EDGE ( 'NONE', *, *, #94, .T. ) ;
#86 = FACE_OUTER_BOUND ( 'NONE', #66, .T. ) ;
#87 = VERTEX_POINT ( 'NONE', #56 ) ;
#88 = VERTEX_POINT ( 'NONE', #42 ) ;
#89 = DIRECTION ( 'NONE',  ( -4.275831445896958607E-31, -1.000000000000000000, -1.224646799147353207E-16 ) ) ;
#90 = PRODUCT_DEFINITION_FORMATION_WITH_SPECIFIED_SOURCE ( 'ANY', '', #184, .NOT_KNOWN. ) ;
#91 = DIRECTION ( 'NONE',  ( -3.491481338843133355E-15, 1.224646799147353207E-16, -1.000000000000000000 ) ) ;
#92 = DIRECTION ( 'NONE',  ( 4.275831445896958607E-31, 1.000000000000000000, 1.224646799147353207E-16 ) ) ;
#93 = CARTESIAN_POINT ( 'NONE',  ( 0.0000000000000000000, 0.0000000000000000000, 0.0000000000000000000 ) ) ;
#94 = EDGE_CURVE ( 'NONE', #87, #87, #79, .T. ) ;
#95 = PERSON_AND_ORGANIZATION_ROLE ( 'design_supplier' ) ;
#96 = AXIS2_PLACEMENT_3D ( 'NONE', #37, #21, #152 ) ;
#97 = ORIENTED_EDGE ( 'NONE', *, *, #151, .T. ) ;
#98 = CC_DESIGN_PERSON_AND_ORGANIZATION_ASSIGNMENT ( #140, #64, ( #180 ) ) ;
#99 = AXIS2_PLACEMENT_3D ( 'NONE', #59, #106, #170 ) ;
#100 = CC_DESIGN_PERSON_AND_ORGANIZATION_ASSIGNMENT ( #80, #63, ( #137 ) ) ;
#101 = ORIENTED_EDGE ( 'NONE', *, *, #8, .T. ) ;
#102 = CARTESIAN_POINT ( 'NONE',  ( 2.025059176529017346E-13, -7.102951435054648059E-15, 58.00000000000000000 ) ) ;
#103 = DIRECTION ( 'NONE',  ( -3.491481338843133355E-15, 1.224646799147353207E-16, -1.000000000000000000 ) ) ;
#104 = APPLICATION_CONTEXT ( 'configuration controlled 3d designs of mechanical parts and assemblies' ) ;
#105 = APPROVAL_PERSON_ORGANIZATION ( #143, #70, #33 ) ;
#106 = DIRECTION ( 'NONE',  ( -3.491481338843133355E-15, 1.224646799147353207E-16, -1.000000000000000000 ) ) ;
#107 = LOCAL_TIME ( 15, 34, 38.00000000000000000, #160 ) ;
#108 = CALENDAR_DATE ( 2021, 15, 10 ) ;
#109 = DATE_TIME_ROLE ( 'classification_date' ) ;
#110 = PERSON_AND_ORGANIZATION ( #183, #25 ) ;
#111 = LOCAL_TIME ( 15, 34, 38.00000000000000000, #78 ) ;
#112 = ORIENTED_EDGE ( 'NONE', *, *, #84, .T. ) ;
#113 = AXIS2_PLACEMENT_3D ( 'NONE', #67, #178, #38 ) ;
#114 = ADVANCED_FACE ( 'NONE', ( #181, #40 ), #116, .T. ) ;
#115 = DIRECTION ( 'NONE',  ( 3.491481338843133355E-15, -1.224646799147353207E-16, 1.000000000000000000 ) ) ;
#116 = CONICAL_SURFACE ( 'NONE', #54, 1.799999999999998490, 0.7853981633974407295 ) ;
#117 = DIRECTION ( 'NONE',  ( -5.024165072314547504E-31, -1.000000000000000000, -1.414176746720228577E-16 ) ) ;
#118 = ADVANCED_BREP_SHAPE_REPRESENTATION ( '32862', ( #69, #4, #191 ), #124 ) ;
#119 = FACE_OUTER_BOUND ( 'NONE', #168, .T. ) ;
#120 = CARTESIAN_POINT ( 'NONE',  ( 8.379555213223520053E-14, 2.299999999999991385, 24.00000000000000000 ) ) ;
#121 =( NAMED_UNIT ( * ) PLANE_ANGLE_UNIT ( ) SI_UNIT ( $, .RADIAN. ) );
#122 = APPROVAL ( #175, 'UNSPECIFIED' ) ;
#123 = APPROVAL_DATE_TIME ( #161, #70 ) ;
#124 =( GEOMETRIC_REPRESENTATION_CONTEXT ( 3 ) GLOBAL_UNCERTAINTY_ASSIGNED_CONTEXT ( ( #51 ) ) GLOBAL_UNIT_ASSIGNED_CONTEXT ( ( #136, #121, #154 ) ) REPRESENTATION_CONTEXT ( 'NONE', 'WORKASPACE' ) );
#125 = COORDINATED_UNIVERSAL_TIME_OFFSET ( 1, 0, .AHEAD. ) ;
#126 = DATE_AND_TIME ( #48, #36 ) ;
#127 = CALENDAR_DATE ( 2021, 15, 10 ) ;
#128 = APPROVAL_PERSON_ORGANIZATION ( #15, #142, #159 ) ;
#129 = CC_DESIGN_DATE_AND_TIME_ASSIGNMENT ( #13, #76, ( #137 ) ) ;
#130 = FACE_OUTER_BOUND ( 'NONE', #39, .T. ) ;
#131 = AXIS2_PLACEMENT_3D ( 'NONE', #179, #172, #155 ) ;
#132 = DIRECTION ( 'NONE',  ( -3.491481338843133355E-15, 1.224646799147353207E-16, -1.000000000000000000 ) ) ;
#133 = FACE_OUTER_BOUND ( 'NONE', #149, .T. ) ;
#134 = CYLINDRICAL_SURFACE ( 'NONE', #99, 2.299999999999993161 ) ;
#135 = PLANE ( 'NONE',  #138 ) ;
#136 =( LENGTH_UNIT ( ) NAMED_UNIT ( * ) SI_UNIT ( .MILLI., .METRE. ) );
#137 = PRODUCT_DEFINITION ( 'UNKNOWN', '', #90, #177 ) ;
#138 = AXIS2_PLACEMENT_3D ( 'NONE', #7, #115, #89 ) ;
#139 = CC_DESIGN_SECURITY_CLASSIFICATION ( #180, ( #90 ) ) ;
#140 = PERSON_AND_ORGANIZATION ( #183, #25 ) ;
#141 = APPLICATION_PROTOCOL_DEFINITION ( 'international standard', 'config_control_design', 1994, #150 ) ;
#142 = APPROVAL ( #30, 'UNSPECIFIED' ) ;
#143 = PERSON_AND_ORGANIZATION ( #183, #25 ) ;
#144 = APPROVAL_DATE_TIME ( #32, #122 ) ;
#145 = APPLICATION_PROTOCOL_DEFINITION ( 'international standard', 'config_control_design', 1994, #104 ) ;
#146 = ADVANCED_FACE ( 'NONE', ( #73, #133 ), #134, .T. ) ;
#147 = CIRCLE ( 'NONE', #165, 1.799999999999998490 ) ;
#148 = EDGE_LOOP ( 'NONE', ( #85 ) ) ;
#149 = EDGE_LOOP ( 'NONE', ( #112 ) ) ;
#150 = APPLICATION_CONTEXT ( 'configuration controlled 3d designs of mechanical parts and assemblies' ) ;
#151 = EDGE_CURVE ( 'NONE', #88, #88, #10, .T. ) ;
#152 = DIRECTION ( 'NONE',  ( 4.275831445896958607E-31, 1.000000000000000000, 1.224646799147353454E-16 ) ) ;
#153 = LOCAL_TIME ( 15, 34, 38.00000000000000000, #125 ) ;
#154 =( NAMED_UNIT ( * ) SI_UNIT ( $, .STERADIAN. ) SOLID_ANGLE_UNIT ( ) );
#155 = DIRECTION ( 'NONE',  ( 0.0000000000000000000, 1.000000000000000000, 0.0000000000000000000 ) ) ;
#156 = FACE_OUTER_BOUND ( 'NONE', #148, .T. ) ;
#157 = PRODUCT_DEFINITION_SHAPE ( 'NONE', 'NONE',  #137 ) ;
#158 = FACE_OUTER_BOUND ( 'NONE', #50, .T. ) ;
#159 = APPROVAL_ROLE ( '' ) ;
#160 = COORDINATED_UNIVERSAL_TIME_OFFSET ( 1, 0, .AHEAD. ) ;
#161 = DATE_AND_TIME ( #108, #107 ) ;
#162 = DIRECTION ( 'NONE',  ( 1.000000000000000000, 0.0000000000000000000, 0.0000000000000000000 ) ) ;
#163 = CC_DESIGN_PERSON_AND_ORGANIZATION_ASSIGNMENT ( #174, #95, ( #90 ) ) ;
#164 = EDGE_LOOP ( 'NONE', ( #35 ) ) ;
#165 = AXIS2_PLACEMENT_3D ( 'NONE', #9, #201, #200 ) ;
#166 = ORIENTED_EDGE ( 'NONE', *, *, #151, .F. ) ;
#167 = ORIENTED_EDGE ( 'NONE', *, *, #94, .F. ) ;
#168 = EDGE_LOOP ( 'NONE', ( #82 ) ) ;
#169 = DIRECTION ( 'NONE',  ( 3.491481338843133355E-15, -1.224646799147353207E-16, 1.000000000000000000 ) ) ;
#170 = DIRECTION ( 'NONE',  ( 4.275831445896957731E-31, 1.000000000000000000, 1.224646799147353207E-16 ) ) ;
#171 = DIRECTION ( 'NONE',  ( 3.491481338843133355E-15, -1.224646799147353207E-16, 1.000000000000000000 ) ) ;
#172 = DIRECTION ( 'NONE',  ( -3.491481338843133355E-15, 1.224646799147353207E-16, -1.000000000000000000 ) ) ;
#173 = AXIS2_PLACEMENT_3D ( 'NONE', #43, #103, #198 ) ;
#174 = PERSON_AND_ORGANIZATION ( #183, #25 ) ;
#175 = APPROVAL_STATUS ( 'not_yet_approved' ) ;
#176 = CC_DESIGN_PERSON_AND_ORGANIZATION_ASSIGNMENT ( #77, #14, ( #184 ) ) ;
#177 = DESIGN_CONTEXT ( 'detailed design', #104, 'design' ) ;
#178 = DIRECTION ( 'NONE',  ( -3.491481338843133355E-15, 1.224646799147353207E-16, -1.000000000000000000 ) ) ;
#179 = CARTESIAN_POINT ( 'NONE',  ( 8.379555213223520053E-14, -2.939152317953647894E-15, 24.00000000000000000 ) ) ;
#180 = SECURITY_CLASSIFICATION ( '', '', #62 ) ;
#181 = FACE_OUTER_BOUND ( 'NONE', #18, .T. ) ;
#182 = VERTEX_POINT ( 'NONE', #120 ) ;
#183 = PERSON ( 'UNSPECIFIED', 'UNSPECIFIED', 'UNSPECIFIED', ('UNSPECIFIED'), ('UNSPECIFIED'), ('UNSPECIFIED') ) ;
#184 = PRODUCT ( '32862', '32862', '', ( #17 ) ) ;
#185 = CARTESIAN_POINT ( 'NONE',  ( 2.025059176529017346E-13, 1.799999999999991385, 58.00000000000000000 ) ) ;
#186 = APPROVAL_STATUS ( 'not_yet_approved' ) ;
#187 = LOCAL_TIME ( 15, 34, 38.00000000000000000, #1 ) ;
#188 = COORDINATED_UNIVERSAL_TIME_OFFSET ( 1, 0, .AHEAD. ) ;
#189 = DIRECTION ( 'NONE',  ( 0.0000000000000000000, 0.0000000000000000000, 1.000000000000000000 ) ) ;
#190 = SHAPE_DEFINITION_REPRESENTATION ( #157, #118 ) ;
#191 = AXIS2_PLACEMENT_3D ( 'NONE', #93, #189, #162 ) ;
#192 = EDGE_LOOP ( 'NONE', ( #167 ) ) ;
#193 = PLANE ( 'NONE',  #57 ) ;
#194 = CC_DESIGN_PERSON_AND_ORGANIZATION_ASSIGNMENT ( #31, #202, ( #90 ) ) ;
#195 = DIRECTION ( 'NONE',  ( 0.0000000000000000000, 1.000000000000000000, 0.0000000000000000000 ) ) ;
#196 = VERTEX_POINT ( 'NONE', #41 ) ;
#197 = CIRCLE ( 'NONE', #113, 2.299999999999994493 ) ;
#198 = DIRECTION ( 'NONE',  ( 5.024165072314547504E-31, 1.000000000000000000, 1.414176746720228577E-16 ) ) ;
#199 = PRODUCT_RELATED_PRODUCT_CATEGORY ( 'detail', '', ( #184 ) ) ;
#200 = DIRECTION ( 'NONE',  ( 0.0000000000000000000, 1.000000000000000000, 0.0000000000000000000 ) ) ;
#201 = DIRECTION ( 'NONE',  ( -3.491481338843133355E-15, 1.224646799147353207E-16, -1.000000000000000000 ) ) ;
#202 = PERSON_AND_ORGANIZATION_ROLE ( 'creator' ) ;
#203 = APPROVAL_DATE_TIME ( #126, #142 ) ;
ENDSEC;
END-ISO-10303-21;
