ISO-10303-21;
HEADER;
FILE_DESCRIPTION (( 'STEP AP203' ),
    '1' );
FILE_NAME ('32860.step',
    '2021-10-15T13:34:38',
    ( '' ),
    ( '' ),
    'SwSTEP 2.0',
    'SolidWorks 2019',
    '' );
FILE_SCHEMA (( 'CONFIG_CONTROL_DESIGN' ));
ENDSEC;

DATA;
#1 = DIRECTION ( 'NONE',  ( 4.465924508724041934E-31, 1.000000000000000000, 1.257045997084647542E-16 ) ) ;
#2 = EDGE_LOOP ( 'NONE', ( #105 ) ) ;
#3 = CARTESIAN_POINT ( 'NONE',  ( 2.559255821372016181E-13, 3.449999999999986855, 73.29999999999999716 ) ) ;
#4 = EDGE_LOOP ( 'NONE', ( #193 ) ) ;
#5 =( NAMED_UNIT ( * ) SI_UNIT ( $, .STERADIAN. ) SOLID_ANGLE_UNIT ( ) );
#6 = APPLICATION_PROTOCOL_DEFINITION ( 'international standard', 'config_control_design', 1994, #47 ) ;
#7 = CC_DESIGN_APPROVAL ( #131, ( #85 ) ) ;
#8 = EDGE_LOOP ( 'NONE', ( #90 ) ) ;
#9 = AXIS2_PLACEMENT_3D ( 'NONE', #127, #187, #175 ) ;
#10 = APPROVAL_ROLE ( '' ) ;
#11 = SHAPE_DEFINITION_REPRESENTATION ( #65, #83 ) ;
#12 = APPROVAL_ROLE ( '' ) ;
#13 = APPROVAL_PERSON_ORGANIZATION ( #163, #50, #10 ) ;
#14 = FACE_OUTER_BOUND ( 'NONE', #144, .T. ) ;
#15 = MANIFOLD_SOLID_BREP ( 'Corps-Déplacer/Copier1[2]', #71 ) ;
#16 = MANIFOLD_SOLID_BREP ( 'Corps-Déplacer/Copier1[1]', #46 ) ;
#17 = CARTESIAN_POINT ( 'NONE',  ( 2.583696190743918430E-13, 2.062169701160037789E-32, 74.00000000000000000 ) ) ;
#18 = DIRECTION ( 'NONE',  ( -3.491481338843133355E-15, 1.224646799147353207E-16, -1.000000000000000000 ) ) ;
#19 = AXIS2_PLACEMENT_3D ( 'NONE', #145, #121, #107 ) ;
#20 = CARTESIAN_POINT ( 'NONE',  ( 4.384243718880133595E-15, -1.537785689207623708E-16, 1.255697308218410191 ) ) ;
#21 = CARTESIAN_POINT ( 'NONE',  ( 0.0000000000000000000, 0.0000000000000000000, 0.0000000000000000000 ) ) ;
#22 = APPLICATION_PROTOCOL_DEFINITION ( 'international standard', 'config_control_design', 1994, #194 ) ;
#23 = CC_DESIGN_PERSON_AND_ORGANIZATION_ASSIGNMENT ( #81, #138, ( #63 ) ) ;
#24 = APPROVAL_STATUS ( 'not_yet_approved' ) ;
#25 = CARTESIAN_POINT ( 'NONE',  ( 0.0000000000000000000, 0.0000000000000000000, 0.0000000000000000000 ) ) ;
#26 = ORIENTED_EDGE ( 'NONE', *, *, #35, .F. ) ;
#27 = CARTESIAN_POINT ( 'NONE',  ( 1.187103655206665341E-13, 3.449999999999987299, 34.00000000000000000 ) ) ;
#28 = AXIS2_PLACEMENT_3D ( 'NONE', #25, #149, #39 ) ;
#29 = CC_DESIGN_DATE_AND_TIME_ASSIGNMENT ( #102, #123, ( #185 ) ) ;
#30 = PERSON_AND_ORGANIZATION_ROLE ( 'creator' ) ;
#31 = CONICAL_SURFACE ( 'NONE', #182, 3.449999999999987299, 1.221730476396026388 ) ;
#32 = DATE_TIME_ROLE ( 'classification_date' ) ;
#33 = CIRCLE ( 'NONE', #142, 3.449999999999996181 ) ;
#34 = CARTESIAN_POINT ( 'NONE',  ( 0.0000000000000000000, 0.0000000000000000000, 0.0000000000000000000 ) ) ;
#35 = EDGE_CURVE ( 'NONE', #113, #113, #126, .T. ) ;
#36 = CARTESIAN_POINT ( 'NONE',  ( 4.384243718880133595E-15, -1.537785689207623708E-16, 1.255697308218410191 ) ) ;
#37 = CARTESIAN_POINT ( 'NONE',  ( 1.187103655206665341E-13, 2.587085625091692057E-32, 34.00000000000000000 ) ) ;
#38 = EDGE_LOOP ( 'NONE', ( #124 ) ) ;
#39 = DIRECTION ( 'NONE',  ( 1.000000000000000000, 0.0000000000000000000, 0.0000000000000000000 ) ) ;
#40 = EDGE_CURVE ( 'NONE', #91, #91, #109, .T. ) ;
#41 = PERSON_AND_ORGANIZATION ( #174, #201 ) ;
#42 = ORIENTED_EDGE ( 'NONE', *, *, #115, .F. ) ;
#43 = DATE_AND_TIME ( #100, #116 ) ;
#44 = COORDINATED_UNIVERSAL_TIME_OFFSET ( 1, 0, .AHEAD. ) ;
#45 = CALENDAR_DATE ( 2021, 15, 10 ) ;
#46 = CLOSED_SHELL ( 'NONE', ( #67, #59, #128, #84 ) ) ;
#47 = APPLICATION_CONTEXT ( 'configuration controlled 3d designs of mechanical parts and assemblies' ) ;
#48 = DIRECTION ( 'NONE',  ( 4.275831445896958607E-31, 1.000000000000000000, 1.224646799147353207E-16 ) ) ;
#49 = FACE_OUTER_BOUND ( 'NONE', #133, .T. ) ;
#50 = APPROVAL ( #24, 'UNSPECIFIED' ) ;
#51 = DIRECTION ( 'NONE',  ( -4.275831445896958607E-31, -1.000000000000000000, -1.224646799147353207E-16 ) ) ;
#52 = DIRECTION ( 'NONE',  ( 0.0000000000000000000, 1.000000000000000000, 0.0000000000000000000 ) ) ;
#53 = ORIENTED_EDGE ( 'NONE', *, *, #40, .T. ) ;
#54 = AXIS2_PLACEMENT_3D ( 'NONE', #132, #190, #52 ) ;
#55 = COORDINATED_UNIVERSAL_TIME_OFFSET ( 1, 0, .AHEAD. ) ;
#56 = CARTESIAN_POINT ( 'NONE',  ( 1.187103655206665341E-13, -4.163799117101000559E-15, 34.00000000000000000 ) ) ;
#57 =( NAMED_UNIT ( * ) PLANE_ANGLE_UNIT ( ) SI_UNIT ( $, .RADIAN. ) );
#58 = PERSON_AND_ORGANIZATION_ROLE ( 'design_owner' ) ;
#59 = ADVANCED_FACE ( 'NONE', ( #167, #192 ), #159, .T. ) ;
#60 = CIRCLE ( 'NONE', #54, 2.749999999999996003 ) ;
#61 = DIRECTION ( 'NONE',  ( 0.0000000000000000000, 1.000000000000000000, 0.0000000000000000000 ) ) ;
#62 = DATE_AND_TIME ( #45, #191 ) ;
#63 = PRODUCT_DEFINITION_FORMATION_WITH_SPECIFIED_SOURCE ( 'ANY', '', #73, .NOT_KNOWN. ) ;
#64 = CC_DESIGN_DATE_AND_TIME_ASSIGNMENT ( #62, #32, ( #85 ) ) ;
#65 = PRODUCT_DEFINITION_SHAPE ( 'NONE', 'NONE',  #185 ) ;
#66 = CC_DESIGN_APPROVAL ( #112, ( #185 ) ) ;
#67 = ADVANCED_FACE ( 'NONE', ( #49 ), #154, .F. ) ;
#68 = AXIS2_PLACEMENT_3D ( 'NONE', #177, #158, #176 ) ;
#69 = FACE_OUTER_BOUND ( 'NONE', #38, .T. ) ;
#70 = DIRECTION ( 'NONE',  ( 4.275831445896958607E-31, 1.000000000000000000, 1.224646799147353207E-16 ) ) ;
#71 = CLOSED_SHELL ( 'NONE', ( #93, #199, #75 ) ) ;
#72 = DIRECTION ( 'NONE',  ( 3.491481338843133355E-15, -1.224646799147353207E-16, 1.000000000000000000 ) ) ;
#73 = PRODUCT ( '32860', '32860', '', ( #137 ) ) ;
#74 = DIRECTION ( 'NONE',  ( 0.0000000000000000000, 1.000000000000000000, 0.0000000000000000000 ) ) ;
#75 = ADVANCED_FACE ( 'NONE', ( #96 ), #189, .T. ) ;
#76 = PERSON_AND_ORGANIZATION ( #174, #201 ) ;
#77 = CALENDAR_DATE ( 2021, 15, 10 ) ;
#78 = ORIENTED_EDGE ( 'NONE', *, *, #86, .T. ) ;
#79 = APPROVAL_ROLE ( '' ) ;
#80 = LOCAL_TIME ( 15, 34, 38.00000000000000000, #44 ) ;
#81 = PERSON_AND_ORGANIZATION ( #174, #201 ) ;
#82 = CC_DESIGN_PERSON_AND_ORGANIZATION_ASSIGNMENT ( #161, #148, ( #85 ) ) ;
#83 = ADVANCED_BREP_SHAPE_REPRESENTATION ( '32860', ( #16, #15, #28 ), #170 ) ;
#84 = ADVANCED_FACE ( 'NONE', ( #14 ), #178, .F. ) ;
#85 = SECURITY_CLASSIFICATION ( '', '', #89 ) ;
#86 = EDGE_CURVE ( 'NONE', #164, #164, #171, .T. ) ;
#87 = DIRECTION ( 'NONE',  ( -3.491481338843133355E-15, 1.224646799147353207E-16, -1.000000000000000000 ) ) ;
#88 =( LENGTH_UNIT ( ) NAMED_UNIT ( * ) SI_UNIT ( .MILLI., .METRE. ) );
#89 = SECURITY_CLASSIFICATION_LEVEL ( 'unclassified' ) ;
#90 = ORIENTED_EDGE ( 'NONE', *, *, #86, .F. ) ;
#91 = VERTEX_POINT ( 'NONE', #27 ) ;
#92 = CC_DESIGN_SECURITY_CLASSIFICATION ( #85, ( #63 ) ) ;
#93 = ADVANCED_FACE ( 'NONE', ( #202 ), #31, .T. ) ;
#94 = APPROVAL_PERSON_ORGANIZATION ( #186, #131, #12 ) ;
#95 = FACE_OUTER_BOUND ( 'NONE', #8, .T. ) ;
#96 = FACE_OUTER_BOUND ( 'NONE', #165, .T. ) ;
#97 = DIRECTION ( 'NONE',  ( -4.465924508724041934E-31, -1.000000000000000000, -1.257045997084647542E-16 ) ) ;
#98 = CONICAL_SURFACE ( 'NONE', #9, 2.749999999999996003, 0.7853981633974439491 ) ;
#99 = ORIENTED_EDGE ( 'NONE', *, *, #115, .T. ) ;
#100 = CALENDAR_DATE ( 2021, 15, 10 ) ;
#101 = LOCAL_TIME ( 15, 34, 38.00000000000000000, #173 ) ;
#102 = DATE_AND_TIME ( #197, #80 ) ;
#103 = AXIS2_PLACEMENT_3D ( 'NONE', #36, #141, #1 ) ;
#104 = PERSON_AND_ORGANIZATION ( #174, #201 ) ;
#105 = ORIENTED_EDGE ( 'NONE', *, *, #108, .T. ) ;
#106 = APPROVAL_DATE_TIME ( #43, #50 ) ;
#107 = DIRECTION ( 'NONE',  ( 0.0000000000000000000, 1.000000000000000000, 0.0000000000000000000 ) ) ;
#108 = EDGE_CURVE ( 'NONE', #198, #198, #33, .T. ) ;
#109 = CIRCLE ( 'NONE', #19, 3.449999999999991740 ) ;
#110 = APPROVAL_STATUS ( 'not_yet_approved' ) ;
#111 = FACE_BOUND ( 'NONE', #180, .T. ) ;
#112 = APPROVAL ( #134, 'UNSPECIFIED' ) ;
#113 = VERTEX_POINT ( 'NONE', #146 ) ;
#114 = AXIS2_PLACEMENT_3D ( 'NONE', #56, #150, #61 ) ;
#115 = EDGE_CURVE ( 'NONE', #136, #136, #60, .T. ) ;
#116 = LOCAL_TIME ( 15, 34, 38.00000000000000000, #168 ) ;
#117 = APPROVAL_PERSON_ORGANIZATION ( #76, #112, #79 ) ;
#118 = AXIS2_PLACEMENT_3D ( 'NONE', #37, #130, #51 ) ;
#119 = ORIENTED_EDGE ( 'NONE', *, *, #35, .T. ) ;
#120 = DATE_AND_TIME ( #77, #196 ) ;
#121 = DIRECTION ( 'NONE',  ( -3.491481338843133355E-15, 1.224646799147353207E-16, -1.000000000000000000 ) ) ;
#122 = CARTESIAN_POINT ( 'NONE',  ( 4.384243718880135173E-15, 3.449999999999987299, 1.255697308218410635 ) ) ;
#123 = DATE_TIME_ROLE ( 'creation_date' ) ;
#124 = ORIENTED_EDGE ( 'NONE', *, *, #108, .F. ) ;
#125 = COORDINATED_UNIVERSAL_TIME_OFFSET ( 1, 0, .AHEAD. ) ;
#126 = CIRCLE ( 'NONE', #114, 3.449999999999991740 ) ;
#127 = CARTESIAN_POINT ( 'NONE',  ( 2.583696190743918430E-13, -9.062386313690413585E-15, 74.00000000000000000 ) ) ;
#128 = ADVANCED_FACE ( 'NONE', ( #69, #111 ), #98, .T. ) ;
#129 = DIRECTION ( 'NONE',  ( -3.491481338843133355E-15, 1.224646799147353207E-16, -1.000000000000000000 ) ) ;
#130 = DIRECTION ( 'NONE',  ( 3.491481338843133355E-15, -1.224646799147353207E-16, 1.000000000000000000 ) ) ;
#131 = APPROVAL ( #110, 'UNSPECIFIED' ) ;
#132 = CARTESIAN_POINT ( 'NONE',  ( 2.583696190743918430E-13, -9.062386313690413585E-15, 74.00000000000000000 ) ) ;
#133 = EDGE_LOOP ( 'NONE', ( #53 ) ) ;
#134 = APPROVAL_STATUS ( 'not_yet_approved' ) ;
#135 = CARTESIAN_POINT ( 'NONE',  ( 2.583696190743918430E-13, 2.749999999999986677, 74.00000000000000000 ) ) ;
#136 = VERTEX_POINT ( 'NONE', #135 ) ;
#137 = MECHANICAL_CONTEXT ( 'NONE', #194, 'mechanical' ) ;
#138 = PERSON_AND_ORGANIZATION_ROLE ( 'design_supplier' ) ;
#139 = CC_DESIGN_APPROVAL ( #50, ( #63 ) ) ;
#140 = AXIS2_PLACEMENT_3D ( 'NONE', #21, #87, #157 ) ;
#141 = DIRECTION ( 'NONE',  ( -3.491481338843133355E-15, 1.224646799147353207E-16, -1.000000000000000000 ) ) ;
#142 = AXIS2_PLACEMENT_3D ( 'NONE', #155, #143, #74 ) ;
#143 = DIRECTION ( 'NONE',  ( -3.491481338843133355E-15, 1.224646799147353207E-16, -1.000000000000000000 ) ) ;
#144 = EDGE_LOOP ( 'NONE', ( #42 ) ) ;
#145 = CARTESIAN_POINT ( 'NONE',  ( 1.187103655206665341E-13, -4.163799117101000559E-15, 34.00000000000000000 ) ) ;
#146 = CARTESIAN_POINT ( 'NONE',  ( 1.187103655206665341E-13, 3.449999999999987299, 34.00000000000000000 ) ) ;
#147 = EDGE_LOOP ( 'NONE', ( #119 ) ) ;
#148 = PERSON_AND_ORGANIZATION_ROLE ( 'classification_officer' ) ;
#149 = DIRECTION ( 'NONE',  ( 0.0000000000000000000, 0.0000000000000000000, 1.000000000000000000 ) ) ;
#150 = DIRECTION ( 'NONE',  ( -3.491481338843133355E-15, 1.224646799147353207E-16, -1.000000000000000000 ) ) ;
#151 = CALENDAR_DATE ( 2021, 15, 10 ) ;
#152 = PRODUCT_RELATED_PRODUCT_CATEGORY ( 'detail', '', ( #73 ) ) ;
#153 = FACE_OUTER_BOUND ( 'NONE', #147, .T. ) ;
#154 = PLANE ( 'NONE',  #68 ) ;
#155 = CARTESIAN_POINT ( 'NONE',  ( 2.559255821372016181E-13, -8.976661037750097719E-15, 73.29999999999999716 ) ) ;
#156 = AXIS2_PLACEMENT_3D ( 'NONE', #17, #18, #70 ) ;
#157 = DIRECTION ( 'NONE',  ( 4.275831445896958607E-31, 1.000000000000000000, 1.224646799147353207E-16 ) ) ;
#158 = DIRECTION ( 'NONE',  ( 3.491481338843133355E-15, -1.224646799147353207E-16, 1.000000000000000000 ) ) ;
#159 = CYLINDRICAL_SURFACE ( 'NONE', #140, 3.449999999999993960 ) ;
#160 = CC_DESIGN_PERSON_AND_ORGANIZATION_ASSIGNMENT ( #104, #58, ( #73 ) ) ;
#161 = PERSON_AND_ORGANIZATION ( #174, #201 ) ;
#162 = UNCERTAINTY_MEASURE_WITH_UNIT (LENGTH_MEASURE( 1.000000000000000082E-05 ), #88, 'distance_accuracy_value', 'NONE');
#163 = PERSON_AND_ORGANIZATION ( #174, #201 ) ;
#164 = VERTEX_POINT ( 'NONE', #122 ) ;
#165 = EDGE_LOOP ( 'NONE', ( #26 ) ) ;
#166 = PERSON_AND_ORGANIZATION ( #174, #201 ) ;
#167 = FACE_OUTER_BOUND ( 'NONE', #4, .T. ) ;
#168 = COORDINATED_UNIVERSAL_TIME_OFFSET ( 1, 0, .AHEAD. ) ;
#169 = DATE_AND_TIME ( #151, #101 ) ;
#170 =( GEOMETRIC_REPRESENTATION_CONTEXT ( 3 ) GLOBAL_UNCERTAINTY_ASSIGNED_CONTEXT ( ( #162 ) ) GLOBAL_UNIT_ASSIGNED_CONTEXT ( ( #88, #57, #5 ) ) REPRESENTATION_CONTEXT ( 'NONE', 'WORKASPACE' ) );
#171 = CIRCLE ( 'NONE', #103, 3.449999999999987299 ) ;
#172 = CC_DESIGN_PERSON_AND_ORGANIZATION_ASSIGNMENT ( #41, #184, ( #185 ) ) ;
#173 = COORDINATED_UNIVERSAL_TIME_OFFSET ( 1, 0, .AHEAD. ) ;
#174 = PERSON ( 'UNSPECIFIED', 'UNSPECIFIED', 'UNSPECIFIED', ('UNSPECIFIED'), ('UNSPECIFIED'), ('UNSPECIFIED') ) ;
#175 = DIRECTION ( 'NONE',  ( 0.0000000000000000000, 1.000000000000000000, 0.0000000000000000000 ) ) ;
#176 = DIRECTION ( 'NONE',  ( -4.275831445896958607E-31, -1.000000000000000000, -1.224646799147353207E-16 ) ) ;
#177 = CARTESIAN_POINT ( 'NONE',  ( 1.187103655206665341E-13, 2.587085625091692057E-32, 34.00000000000000000 ) ) ;
#178 = PLANE ( 'NONE',  #156 ) ;
#179 = AXIS2_PLACEMENT_3D ( 'NONE', #34, #129, #48 ) ;
#180 = EDGE_LOOP ( 'NONE', ( #99 ) ) ;
#181 = APPROVAL_DATE_TIME ( #120, #112 ) ;
#182 = AXIS2_PLACEMENT_3D ( 'NONE', #20, #72, #97 ) ;
#183 = EDGE_LOOP ( 'NONE', ( #78 ) ) ;
#184 = PERSON_AND_ORGANIZATION_ROLE ( 'creator' ) ;
#185 = PRODUCT_DEFINITION ( 'UNKNOWN', '', #63, #195 ) ;
#186 = PERSON_AND_ORGANIZATION ( #174, #201 ) ;
#187 = DIRECTION ( 'NONE',  ( -3.491481338843133355E-15, 1.224646799147353207E-16, -1.000000000000000000 ) ) ;
#188 = CC_DESIGN_PERSON_AND_ORGANIZATION_ASSIGNMENT ( #166, #30, ( #63 ) ) ;
#189 = PLANE ( 'NONE',  #118 ) ;
#190 = DIRECTION ( 'NONE',  ( -3.491481338843133355E-15, 1.224646799147353207E-16, -1.000000000000000000 ) ) ;
#191 = LOCAL_TIME ( 15, 34, 38.00000000000000000, #125 ) ;
#192 = FACE_OUTER_BOUND ( 'NONE', #2, .T. ) ;
#193 = ORIENTED_EDGE ( 'NONE', *, *, #40, .F. ) ;
#194 = APPLICATION_CONTEXT ( 'configuration controlled 3d designs of mechanical parts and assemblies' ) ;
#195 = DESIGN_CONTEXT ( 'detailed design', #47, 'design' ) ;
#196 = LOCAL_TIME ( 15, 34, 38.00000000000000000, #55 ) ;
#197 = CALENDAR_DATE ( 2021, 15, 10 ) ;
#198 = VERTEX_POINT ( 'NONE', #3 ) ;
#199 = ADVANCED_FACE ( 'NONE', ( #95, #153 ), #203, .T. ) ;
#200 = APPROVAL_DATE_TIME ( #169, #131 ) ;
#201 = ORGANIZATION ( 'UNSPECIFIED', 'UNSPECIFIED', '' ) ;
#202 = FACE_OUTER_BOUND ( 'NONE', #183, .T. ) ;
#203 = CYLINDRICAL_SURFACE ( 'NONE', #179, 3.449999999999989519 ) ;
ENDSEC;
END-ISO-10303-21;
