ISO-10303-21;
HEADER;
FILE_DESCRIPTION (( 'STEP AP203' ),
    '1' );
FILE_NAME ('32852.step',
    '2021-11-24T08:55:43',
    ( '' ),
    ( '' ),
    'SwSTEP 2.0',
    'SolidWorks 2019',
    '' );
FILE_SCHEMA (( 'CONFIG_CONTROL_DESIGN' ));
ENDSEC;

DATA;
#1 = PLANE ( 'NONE',  #11 ) ;
#2 = AXIS2_PLACEMENT_3D ( 'NONE', #31, #47, #62 ) ;
#3 = ORIENTED_EDGE ( 'NONE', *, *, #60, .T. ) ;
#4 = PERSON_AND_ORGANIZATION ( #162, #106 ) ;
#5 = EDGE_CURVE ( 'NONE', #104, #104, #150, .T. ) ;
#6 = CC_DESIGN_APPROVAL ( #107, ( #139 ) ) ;
#7 = APPLICATION_PROTOCOL_DEFINITION ( 'international standard', 'config_control_design', 1994, #116 ) ;
#8 = APPROVAL_ROLE ( '' ) ;
#9 = PRODUCT_RELATED_PRODUCT_CATEGORY ( 'detail', '', ( #35 ) ) ;
#10 = APPROVAL_DATE_TIME ( #115, #107 ) ;
#11 = AXIS2_PLACEMENT_3D ( 'NONE', #153, #157, #26 ) ;
#12 = EDGE_LOOP ( 'NONE', ( #112 ) ) ;
#13 = PERSON_AND_ORGANIZATION_ROLE ( 'creator' ) ;
#14 = EDGE_LOOP ( 'NONE', ( #99 ) ) ;
#15 = DIRECTION ( 'NONE',  ( -7.703719777549001216E-31, -1.000000000000000000, -2.168404344971025138E-16 ) ) ;
#16 = MECHANICAL_CONTEXT ( 'NONE', #149, 'mechanical' ) ;
#17 = AXIS2_PLACEMENT_3D ( 'NONE', #131, #136, #100 ) ;
#18 = LOCAL_TIME ( 9, 55, 43.00000000000000000, #124 ) ;
#19 = APPLICATION_PROTOCOL_DEFINITION ( 'international standard', 'config_control_design', 1994, #149 ) ;
#20 = ADVANCED_FACE ( 'NONE', ( #96 ), #1, .F. ) ;
#21 = PERSON_AND_ORGANIZATION_ROLE ( 'creator' ) ;
#22 = APPROVAL ( #138, 'UNSPECIFIED' ) ;
#23 = CALENDAR_DATE ( 2021, 24, 11 ) ;
#24 = DIRECTION ( 'NONE',  ( 0.0000000000000000000, 1.000000000000000000, 0.0000000000000000000 ) ) ;
#25 = AXIS2_PLACEMENT_3D ( 'NONE', #91, #118, #147 ) ;
#26 = DIRECTION ( 'NONE',  ( -4.275831445896958607E-31, -1.000000000000000000, -1.224646799147353207E-16 ) ) ;
#27 = SECURITY_CLASSIFICATION_LEVEL ( 'unclassified' ) ;
#28 = DESIGN_CONTEXT ( 'detailed design', #116, 'design' ) ;
#29 = VERTEX_POINT ( 'NONE', #177 ) ;
#30 = APPROVAL_PERSON_ORGANIZATION ( #163, #22, #8 ) ;
#31 = CARTESIAN_POINT ( 'NONE',  ( 6.047423072554951855E-15, 7.498798913309230564E-33, 1.732050807568888295 ) ) ;
#32 = VERTEX_POINT ( 'NONE', #174 ) ;
#33 = APPROVAL_STATUS ( 'not_yet_approved' ) ;
#34 = COORDINATED_UNIVERSAL_TIME_OFFSET ( 1, 0, .AHEAD. ) ;
#35 = PRODUCT ( '32852', '32852', '', ( #16 ) ) ;
#36 = EDGE_CURVE ( 'NONE', #148, #148, #94, .T. ) ;
#37 = CC_DESIGN_PERSON_AND_ORGANIZATION_ASSIGNMENT ( #57, #152, ( #139 ) ) ;
#38 = ADVANCED_BREP_SHAPE_REPRESENTATION ( '32852', ( #127, #132, #25 ), #159 ) ;
#39 = EDGE_LOOP ( 'NONE', ( #73 ) ) ;
#40 = ORIENTED_EDGE ( 'NONE', *, *, #5, .F. ) ;
#41 = COORDINATED_UNIVERSAL_TIME_OFFSET ( 1, 0, .AHEAD. ) ;
#42 = ADVANCED_FACE ( 'NONE', ( #169, #155 ), #158, .T. ) ;
#43 = CLOSED_SHELL ( 'NONE', ( #74, #68 ) ) ;
#44 = CALENDAR_DATE ( 2021, 24, 11 ) ;
#45 = ORIENTED_EDGE ( 'NONE', *, *, #60, .F. ) ;
#46 = DATE_TIME_ROLE ( 'classification_date' ) ;
#47 = DIRECTION ( 'NONE',  ( 3.491481338843133355E-15, -1.224646799147353207E-16, 1.000000000000000000 ) ) ;
#48 = PERSON_AND_ORGANIZATION ( #162, #106 ) ;
#49 = FACE_OUTER_BOUND ( 'NONE', #72, .T. ) ;
#50 = CARTESIAN_POINT ( 'NONE',  ( 6.047423072554951066E-15, -2.121150477449826895E-16, 1.732050807568888073 ) ) ;
#51 = CALENDAR_DATE ( 2021, 24, 11 ) ;
#52 = AXIS2_PLACEMENT_3D ( 'NONE', #64, #61, #90 ) ;
#53 = DIRECTION ( 'NONE',  ( 7.703719777549001216E-31, 1.000000000000000000, 2.168404344971025138E-16 ) ) ;
#54 = EDGE_LOOP ( 'NONE', ( #45 ) ) ;
#55 = DIRECTION ( 'NONE',  ( -3.491481338843133355E-15, 1.224646799147353207E-16, -1.000000000000000000 ) ) ;
#56 = EDGE_CURVE ( 'NONE', #32, #32, #78, .T. ) ;
#57 = PERSON_AND_ORGANIZATION ( #162, #106 ) ;
#58 = DIRECTION ( 'NONE',  ( -3.491481338843133355E-15, 1.224646799147353207E-16, -1.000000000000000000 ) ) ;
#59 = APPROVAL_DATE_TIME ( #156, #22 ) ;
#60 = EDGE_CURVE ( 'NONE', #29, #29, #161, .T. ) ;
#61 = DIRECTION ( 'NONE',  ( -3.491481338843133355E-15, 1.224646799147353207E-16, -1.000000000000000000 ) ) ;
#62 = DIRECTION ( 'NONE',  ( -4.275831445896958607E-31, -1.000000000000000000, -1.224646799147353207E-16 ) ) ;
#63 = CC_DESIGN_PERSON_AND_ORGANIZATION_ASSIGNMENT ( #93, #21, ( #125 ) ) ;
#64 = CARTESIAN_POINT ( 'NONE',  ( 8.728703347107833388E-14, 5.999039130647352429E-33, 25.00000000000000000 ) ) ;
#65 = CONICAL_SURFACE ( 'NONE', #17, 0.7999999999999956035, 0.7853981633974504994 ) ;
#66 = DATE_AND_TIME ( #130, #171 ) ;
#67 = AXIS2_PLACEMENT_3D ( 'NONE', #128, #58, #145 ) ;
#68 = ADVANCED_FACE ( 'NONE', ( #69 ), #126, .T. ) ;
#69 = FACE_OUTER_BOUND ( 'NONE', #86, .T. ) ;
#70 = ADVANCED_FACE ( 'NONE', ( #175, #121 ), #65, .T. ) ;
#71 = DIRECTION ( 'NONE',  ( 0.0000000000000000000, 1.000000000000000000, 0.0000000000000000000 ) ) ;
#72 = EDGE_LOOP ( 'NONE', ( #172 ) ) ;
#73 = ORIENTED_EDGE ( 'NONE', *, *, #5, .T. ) ;
#74 = ADVANCED_FACE ( 'NONE', ( #49 ), #165, .T. ) ;
#75 = COORDINATED_UNIVERSAL_TIME_OFFSET ( 1, 0, .AHEAD. ) ;
#76 = PERSON_AND_ORGANIZATION ( #162, #106 ) ;
#77 = DATE_AND_TIME ( #51, #18 ) ;
#78 = CIRCLE ( 'NONE', #143, 0.9999999999999924505 ) ;
#79 = AXIS2_PLACEMENT_3D ( 'NONE', #151, #80, #141 ) ;
#80 = DIRECTION ( 'NONE',  ( -3.491481338843133355E-15, 1.224646799147353207E-16, -1.000000000000000000 ) ) ;
#81 = APPROVAL_STATUS ( 'not_yet_approved' ) ;
#82 = ADVANCED_FACE ( 'NONE', ( #88 ), #101, .F. ) ;
#83 = SHAPE_DEFINITION_REPRESENTATION ( #122, #38 ) ;
#84 = CC_DESIGN_APPROVAL ( #89, ( #125 ) ) ;
#85 = CARTESIAN_POINT ( 'NONE',  ( 8.658873720330971983E-14, -3.037124061885436328E-15, 24.80000000000000426 ) ) ;
#86 = EDGE_LOOP ( 'NONE', ( #114 ) ) ;
#87 =( LENGTH_UNIT ( ) NAMED_UNIT ( * ) SI_UNIT ( .MILLI., .METRE. ) );
#88 = FACE_OUTER_BOUND ( 'NONE', #167, .T. ) ;
#89 = APPROVAL ( #33, 'UNSPECIFIED' ) ;
#90 = DIRECTION ( 'NONE',  ( 4.275831445896958607E-31, 1.000000000000000000, 1.224646799147353207E-16 ) ) ;
#91 = CARTESIAN_POINT ( 'NONE',  ( 0.0000000000000000000, 0.0000000000000000000, 0.0000000000000000000 ) ) ;
#92 = APPROVAL_ROLE ( '' ) ;
#93 = PERSON_AND_ORGANIZATION ( #162, #106 ) ;
#94 = CIRCLE ( 'NONE', #120, 0.9999999999999952260 ) ;
#95 = DIRECTION ( 'NONE',  ( -3.491481338843133355E-15, 1.224646799147353207E-16, -1.000000000000000000 ) ) ;
#96 = FACE_OUTER_BOUND ( 'NONE', #166, .T. ) ;
#97 = PERSON_AND_ORGANIZATION_ROLE ( 'design_supplier' ) ;
#98 = LOCAL_TIME ( 9, 55, 43.00000000000000000, #41 ) ;
#99 = ORIENTED_EDGE ( 'NONE', *, *, #36, .F. ) ;
#100 = DIRECTION ( 'NONE',  ( 0.0000000000000000000, 1.000000000000000000, 0.0000000000000000000 ) ) ;
#101 = PLANE ( 'NONE',  #52 ) ;
#102 =( NAMED_UNIT ( * ) SI_UNIT ( $, .STERADIAN. ) SOLID_ANGLE_UNIT ( ) );
#103 = CC_DESIGN_SECURITY_CLASSIFICATION ( #139, ( #129 ) ) ;
#104 = VERTEX_POINT ( 'NONE', #123 ) ;
#105 = DATE_TIME_ROLE ( 'creation_date' ) ;
#106 = ORGANIZATION ( 'UNSPECIFIED', 'UNSPECIFIED', '' ) ;
#107 = APPROVAL ( #81, 'UNSPECIFIED' ) ;
#108 = AXIS2_PLACEMENT_3D ( 'NONE', #50, #146, #15 ) ;
#109 = CARTESIAN_POINT ( 'NONE',  ( 8.728703347107833388E-14, -3.061616997868383043E-15, 25.00000000000000000 ) ) ;
#110 = CC_DESIGN_APPROVAL ( #22, ( #129 ) ) ;
#111 = UNCERTAINTY_MEASURE_WITH_UNIT (LENGTH_MEASURE( 1.000000000000000082E-05 ), #87, 'distance_accuracy_value', 'NONE');
#112 = ORIENTED_EDGE ( 'NONE', *, *, #36, .T. ) ;
#113 = CALENDAR_DATE ( 2021, 24, 11 ) ;
#114 = ORIENTED_EDGE ( 'NONE', *, *, #56, .F. ) ;
#115 = DATE_AND_TIME ( #23, #98 ) ;
#116 = APPLICATION_CONTEXT ( 'configuration controlled 3d designs of mechanical parts and assemblies' ) ;
#117 = CARTESIAN_POINT ( 'NONE',  ( 6.047423072554951066E-15, -2.121150477449826895E-16, 1.732050807568888073 ) ) ;
#118 = DIRECTION ( 'NONE',  ( 0.0000000000000000000, 0.0000000000000000000, 1.000000000000000000 ) ) ;
#119 =( NAMED_UNIT ( * ) PLANE_ANGLE_UNIT ( ) SI_UNIT ( $, .RADIAN. ) );
#120 = AXIS2_PLACEMENT_3D ( 'NONE', #85, #55, #24 ) ;
#121 = FACE_BOUND ( 'NONE', #39, .T. ) ;
#122 = PRODUCT_DEFINITION_SHAPE ( 'NONE', 'NONE',  #125 ) ;
#123 = CARTESIAN_POINT ( 'NONE',  ( 8.728703347107833388E-14, 0.7999999999999926059, 25.00000000000000000 ) ) ;
#124 = COORDINATED_UNIVERSAL_TIME_OFFSET ( 1, 0, .AHEAD. ) ;
#125 = PRODUCT_DEFINITION ( 'UNKNOWN', '', #129, #28 ) ;
#126 = PLANE ( 'NONE',  #2 ) ;
#127 = MANIFOLD_SOLID_BREP ( 'Corps-Déplacer/Copier1[1]', #134 ) ;
#128 = CARTESIAN_POINT ( 'NONE',  ( 0.0000000000000000000, 0.0000000000000000000, 0.0000000000000000000 ) ) ;
#129 = PRODUCT_DEFINITION_FORMATION_WITH_SPECIFIED_SOURCE ( 'ANY', '', #35, .NOT_KNOWN. ) ;
#130 = CALENDAR_DATE ( 2021, 24, 11 ) ;
#131 = CARTESIAN_POINT ( 'NONE',  ( 8.728703347107833388E-14, -3.061616997868383043E-15, 25.00000000000000000 ) ) ;
#132 = MANIFOLD_SOLID_BREP ( 'Corps-Déplacer/Copier1[2]', #43 ) ;
#133 = CARTESIAN_POINT ( 'NONE',  ( 8.658873720330971983E-14, 0.9999999999999922284, 24.80000000000000426 ) ) ;
#134 = CLOSED_SHELL ( 'NONE', ( #20, #42, #70, #82 ) ) ;
#135 = LOCAL_TIME ( 9, 55, 43.00000000000000000, #170 ) ;
#136 = DIRECTION ( 'NONE',  ( -3.491481338843133355E-15, 1.224646799147353207E-16, -1.000000000000000000 ) ) ;
#137 = PERSON_AND_ORGANIZATION_ROLE ( 'design_owner' ) ;
#138 = APPROVAL_STATUS ( 'not_yet_approved' ) ;
#139 = SECURITY_CLASSIFICATION ( '', '', #27 ) ;
#140 = CC_DESIGN_PERSON_AND_ORGANIZATION_ASSIGNMENT ( #48, #137, ( #35 ) ) ;
#141 = DIRECTION ( 'NONE',  ( 7.703719777549001216E-31, 1.000000000000000000, 2.168404344971025138E-16 ) ) ;
#142 = APPROVAL_ROLE ( '' ) ;
#143 = AXIS2_PLACEMENT_3D ( 'NONE', #117, #181, #53 ) ;
#144 = CC_DESIGN_DATE_AND_TIME_ASSIGNMENT ( #183, #46, ( #139 ) ) ;
#145 = DIRECTION ( 'NONE',  ( 4.275831445896957731E-31, 1.000000000000000000, 1.224646799147352961E-16 ) ) ;
#146 = DIRECTION ( 'NONE',  ( 3.491481338843133355E-15, -1.224646799147353207E-16, 1.000000000000000000 ) ) ;
#147 = DIRECTION ( 'NONE',  ( 1.000000000000000000, 0.0000000000000000000, 0.0000000000000000000 ) ) ;
#148 = VERTEX_POINT ( 'NONE', #133 ) ;
#149 = APPLICATION_CONTEXT ( 'configuration controlled 3d designs of mechanical parts and assemblies' ) ;
#150 = CIRCLE ( 'NONE', #179, 0.7999999999999956035 ) ;
#151 = CARTESIAN_POINT ( 'NONE',  ( 6.047423072554951066E-15, -2.121150477449826895E-16, 1.732050807568888073 ) ) ;
#152 = PERSON_AND_ORGANIZATION_ROLE ( 'classification_officer' ) ;
#153 = CARTESIAN_POINT ( 'NONE',  ( 6.047423072554951855E-15, 7.498798913309230564E-33, 1.732050807568888295 ) ) ;
#154 = APPROVAL_PERSON_ORGANIZATION ( #76, #89, #92 ) ;
#155 = FACE_OUTER_BOUND ( 'NONE', #12, .T. ) ;
#156 = DATE_AND_TIME ( #44, #173 ) ;
#157 = DIRECTION ( 'NONE',  ( 3.491481338843133355E-15, -1.224646799147353207E-16, 1.000000000000000000 ) ) ;
#158 = CYLINDRICAL_SURFACE ( 'NONE', #67, 0.9999999999999940048 ) ;
#159 =( GEOMETRIC_REPRESENTATION_CONTEXT ( 3 ) GLOBAL_UNCERTAINTY_ASSIGNED_CONTEXT ( ( #111 ) ) GLOBAL_UNIT_ASSIGNED_CONTEXT ( ( #87, #119, #102 ) ) REPRESENTATION_CONTEXT ( 'NONE', 'WORKASPACE' ) );
#160 = APPROVAL_PERSON_ORGANIZATION ( #4, #107, #142 ) ;
#161 = CIRCLE ( 'NONE', #79, 0.9999999999999924505 ) ;
#162 = PERSON ( 'UNSPECIFIED', 'UNSPECIFIED', 'UNSPECIFIED', ('UNSPECIFIED'), ('UNSPECIFIED'), ('UNSPECIFIED') ) ;
#163 = PERSON_AND_ORGANIZATION ( #162, #106 ) ;
#164 = CC_DESIGN_DATE_AND_TIME_ASSIGNMENT ( #77, #105, ( #125 ) ) ;
#165 = CONICAL_SURFACE ( 'NONE', #108, 0.9999999999999924505, 0.5235987755982929315 ) ;
#166 = EDGE_LOOP ( 'NONE', ( #3 ) ) ;
#167 = EDGE_LOOP ( 'NONE', ( #40 ) ) ;
#168 = PERSON_AND_ORGANIZATION ( #162, #106 ) ;
#169 = FACE_OUTER_BOUND ( 'NONE', #54, .T. ) ;
#170 = COORDINATED_UNIVERSAL_TIME_OFFSET ( 1, 0, .AHEAD. ) ;
#171 = LOCAL_TIME ( 9, 55, 43.00000000000000000, #75 ) ;
#172 = ORIENTED_EDGE ( 'NONE', *, *, #56, .T. ) ;
#173 = LOCAL_TIME ( 9, 55, 43.00000000000000000, #34 ) ;
#174 = CARTESIAN_POINT ( 'NONE',  ( 6.047423072554951855E-15, 0.9999999999999922284, 1.732050807568888295 ) ) ;
#175 = FACE_OUTER_BOUND ( 'NONE', #14, .T. ) ;
#176 = CC_DESIGN_PERSON_AND_ORGANIZATION_ASSIGNMENT ( #168, #13, ( #129 ) ) ;
#177 = CARTESIAN_POINT ( 'NONE',  ( 6.047423072554951855E-15, 0.9999999999999922284, 1.732050807568888295 ) ) ;
#178 = APPROVAL_DATE_TIME ( #66, #89 ) ;
#179 = AXIS2_PLACEMENT_3D ( 'NONE', #109, #95, #71 ) ;
#180 = CC_DESIGN_PERSON_AND_ORGANIZATION_ASSIGNMENT ( #182, #97, ( #129 ) ) ;
#181 = DIRECTION ( 'NONE',  ( -3.491481338843133355E-15, 1.224646799147353207E-16, -1.000000000000000000 ) ) ;
#182 = PERSON_AND_ORGANIZATION ( #162, #106 ) ;
#183 = DATE_AND_TIME ( #113, #135 ) ;
ENDSEC;
END-ISO-10303-21;
