ISO-10303-21;
HEADER;
FILE_DESCRIPTION (( 'STEP AP203' ),
    '1' );
FILE_NAME ('328.step',
    '2021-09-03T07:21:59',
    ( '' ),
    ( '' ),
    'SwSTEP 2.0',
    'SolidWorks 2019',
    '' );
FILE_SCHEMA (( 'CONFIG_CONTROL_DESIGN' ));
ENDSEC;

DATA;
#1 = EDGE_CURVE ( 'NONE', #17, #6, #72, .T. ) ;
#2 = VERTEX_POINT ( 'NONE', #78 ) ;
#3 = PERSON_AND_ORGANIZATION ( #160, #9 ) ;
#4 = FACE_OUTER_BOUND ( 'NONE', #71, .T. ) ;
#5 = ORIENTED_EDGE ( 'NONE', *, *, #161, .F. ) ;
#6 = VERTEX_POINT ( 'NONE', #208 ) ;
#7 = DIRECTION ( 'NONE',  ( 0.0000000000000000000, 1.000000000000000000, 0.0000000000000000000 ) ) ;
#8 = DIRECTION ( 'NONE',  ( 1.798245827342160317E-15, -0.8571673007021098911, 0.5150380749100582634 ) ) ;
#9 = ORGANIZATION ( 'UNSPECIFIED', 'UNSPECIFIED', '' ) ;
#10 = DIRECTION ( 'NONE',  ( -4.275831445896958607E-31, -1.000000000000000000, -1.224646799147353207E-16 ) ) ;
#11 = DIRECTION ( 'NONE',  ( -3.491481338843133355E-15, 1.224646799147353207E-16, -1.000000000000000000 ) ) ;
#12 = FACE_OUTER_BOUND ( 'NONE', #50, .T. ) ;
#13 = CC_DESIGN_PERSON_AND_ORGANIZATION_ASSIGNMENT ( #81, #77, ( #252 ) ) ;
#14 = CARTESIAN_POINT ( 'NONE',  ( 2.555764340033173364E-13, -8.964414569758626729E-15, 73.20000000000000284 ) ) ;
#15 = VECTOR ( 'NONE', #134, 1000.000000000000000 ) ;
#16 = CARTESIAN_POINT ( 'NONE',  ( 0.0000000000000000000, 0.0000000000000000000, 0.0000000000000000000 ) ) ;
#17 = VERTEX_POINT ( 'NONE', #308 ) ;
#18 = AXIS2_PLACEMENT_3D ( 'NONE', #292, #117, #329 ) ;
#19 = ORIENTED_EDGE ( 'NONE', *, *, #333, .F. ) ;
#20 = ORIENTED_EDGE ( 'NONE', *, *, #319, .T. ) ;
#21 = DATE_TIME_ROLE ( 'classification_date' ) ;
#22 = EDGE_CURVE ( 'NONE', #52, #68, #306, .T. ) ;
#23 = ORIENTED_EDGE ( 'NONE', *, *, #22, .F. ) ;
#24 = ORIENTED_EDGE ( 'NONE', *, *, #199, .T. ) ;
#25 = DIRECTION ( 'NONE',  ( -3.491481338843133355E-15, 1.224646799147353207E-16, -1.000000000000000000 ) ) ;
#26 = DIRECTION ( 'NONE',  ( -3.491481338843133355E-15, 1.224646799147353207E-16, -1.000000000000000000 ) ) ;
#27 = ADVANCED_FACE ( 'NONE', ( #76 ), #272, .T. ) ;
#28 = AXIS2_PLACEMENT_3D ( 'NONE', #120, #11, #325 ) ;
#29 = VECTOR ( 'NONE', #8, 1000.000000000000000 ) ;
#30 = EDGE_LOOP ( 'NONE', ( #43, #20, #301 ) ) ;
#31 = DIRECTION ( 'NONE',  ( -3.491481338843133355E-15, 1.224646799147353207E-16, -1.000000000000000000 ) ) ;
#32 = LINE ( 'NONE', #240, #243 ) ;
#33 = DIRECTION ( 'NONE',  ( -3.491481338843133355E-15, 1.224646799147353207E-16, -1.000000000000000000 ) ) ;
#34 = LINE ( 'NONE', #218, #29 ) ;
#35 = CARTESIAN_POINT ( 'NONE',  ( 0.0000000000000000000, 0.0000000000000000000, 0.0000000000000000000 ) ) ;
#36 = EDGE_CURVE ( 'NONE', #176, #227, #32, .T. ) ;
#37 = CARTESIAN_POINT ( 'NONE',  ( 8.728703347107833388E-14, 3.499999999999986233, 25.00000000000000000 ) ) ;
#38 = CARTESIAN_POINT ( 'NONE',  ( 0.0000000000000000000, 0.0000000000000000000, 0.0000000000000000000 ) ) ;
#39 = EDGE_CURVE ( 'NONE', #227, #52, #95, .T. ) ;
#40 = DIRECTION ( 'NONE',  ( -3.491481338843133355E-15, 1.224646799147353207E-16, -1.000000000000000000 ) ) ;
#41 = LINE ( 'NONE', #74, #15 ) ;
#42 = AXIS2_PLACEMENT_3D ( 'NONE', #139, #282, #86 ) ;
#43 = ORIENTED_EDGE ( 'NONE', *, *, #69, .F. ) ;
#44 = PERSON_AND_ORGANIZATION ( #160, #9 ) ;
#45 = EDGE_CURVE ( 'NONE', #227, #128, #324, .T. ) ;
#46 = CIRCLE ( 'NONE', #221, 2.699999999999995293 ) ;
#47 = ORIENTED_EDGE ( 'NONE', *, *, #122, .T. ) ;
#48 = SHAPE_DEFINITION_REPRESENTATION ( #320, #296 ) ;
#49 = CC_DESIGN_PERSON_AND_ORGANIZATION_ASSIGNMENT ( #174, #266, ( #96 ) ) ;
#50 = EDGE_LOOP ( 'NONE', ( #116, #100, #273 ) ) ;
#51 = CIRCLE ( 'NONE', #42, 3.499999999999989342 ) ;
#52 = VERTEX_POINT ( 'NONE', #213 ) ;
#53 = DIRECTION ( 'NONE',  ( -3.491481338843133355E-15, 1.224646799147353207E-16, -1.000000000000000000 ) ) ;
#54 = MANIFOLD_SOLID_BREP ( 'Corps-Déplacer/Copier1[2]', #146 ) ;
#55 = LOCAL_TIME ( 9, 21, 59.00000000000000000, #233 ) ;
#56 = FACE_OUTER_BOUND ( 'NONE', #304, .T. ) ;
#57 = EDGE_LOOP ( 'NONE', ( #258, #24, #226, #300 ) ) ;
#58 = DIRECTION ( 'NONE',  ( 0.0000000000000000000, 0.0000000000000000000, 1.000000000000000000 ) ) ;
#59 = DIRECTION ( 'NONE',  ( -4.275831445896958607E-31, -1.000000000000000000, -1.224646799147353207E-16 ) ) ;
#60 = DIRECTION ( 'NONE',  ( 0.0000000000000000000, 1.000000000000000000, 0.0000000000000000000 ) ) ;
#61 = DATE_TIME_ROLE ( 'creation_date' ) ;
#62 = DIRECTION ( 'NONE',  ( -3.491481338843133355E-15, 1.224646799147353207E-16, -1.000000000000000000 ) ) ;
#63 = DIRECTION ( 'NONE',  ( -3.491481338843133355E-15, 1.224646799147353207E-16, -1.000000000000000000 ) ) ;
#64 = VECTOR ( 'NONE', #89, 999.9999999999998863 ) ;
#65 = ORIENTED_EDGE ( 'NONE', *, *, #122, .F. ) ;
#66 = ORIENTED_EDGE ( 'NONE', *, *, #207, .T. ) ;
#67 = CIRCLE ( 'NONE', #318, 3.499999999999986677 ) ;
#68 = VERTEX_POINT ( 'NONE', #37 ) ;
#69 = EDGE_CURVE ( 'NONE', #127, #6, #184, .T. ) ;
#70 = AXIS2_PLACEMENT_3D ( 'NONE', #35, #140, #331 ) ;
#71 = EDGE_LOOP ( 'NONE', ( #211, #200 ) ) ;
#72 = LINE ( 'NONE', #209, #267 ) ;
#73 = CARTESIAN_POINT ( 'NONE',  ( 0.0000000000000000000, 0.0000000000000000000, 0.0000000000000000000 ) ) ;
#74 = CARTESIAN_POINT ( 'NONE',  ( 4.286263797015707013E-16, -3.499999999999988010, -4.286263797015736102E-16 ) ) ;
#75 = PRODUCT_DEFINITION_FORMATION_WITH_SPECIFIED_SOURCE ( 'ANY', '', #252, .NOT_KNOWN. ) ;
#76 = FACE_OUTER_BOUND ( 'NONE', #316, .T. ) ;
#77 = PERSON_AND_ORGANIZATION_ROLE ( 'design_owner' ) ;
#78 = CARTESIAN_POINT ( 'NONE',  ( 4.774345698275654458E-14, -3.499999999999992006, 25.00000000000000000 ) ) ;
#79 = APPROVAL_DATE_TIME ( #312, #245 ) ;
#80 = CC_DESIGN_PERSON_AND_ORGANIZATION_ASSIGNMENT ( #3, #182, ( #277 ) ) ;
#81 = PERSON_AND_ORGANIZATION ( #160, #9 ) ;
#82 = AXIS2_PLACEMENT_3D ( 'NONE', #92, #285, #163 ) ;
#83 = ORIENTED_EDGE ( 'NONE', *, *, #36, .F. ) ;
#84 = DIRECTION ( 'NONE',  ( 3.491481338843133355E-15, -1.224646799147353207E-16, 1.000000000000000000 ) ) ;
#85 = PERSON_AND_ORGANIZATION ( #160, #9 ) ;
#86 = DIRECTION ( 'NONE',  ( 0.0000000000000000000, 1.000000000000000000, 0.0000000000000000000 ) ) ;
#87 = CALENDAR_DATE ( 2021, 3, 9 ) ;
#88 = EDGE_CURVE ( 'NONE', #132, #176, #46, .T. ) ;
#89 = DIRECTION ( 'NONE',  ( 1.903218546456022717E-15, 0.8571673007021097801, 0.5150380749100585964 ) ) ;
#90 = CARTESIAN_POINT ( 'NONE',  ( 0.0000000000000000000, 0.0000000000000000000, 0.0000000000000000000 ) ) ;
#91 =( NAMED_UNIT ( * ) SI_UNIT ( $, .STERADIAN. ) SOLID_ANGLE_UNIT ( ) );
#92 = CARTESIAN_POINT ( 'NONE',  ( 2.555764340033173364E-13, -8.964414569758626729E-15, 73.20000000000000284 ) ) ;
#93 = CLOSED_SHELL ( 'NONE', ( #303, #133, #239, #295, #284, #225 ) ) ;
#94 = CONICAL_SURFACE ( 'NONE', #183, 2.699999999999995293, 0.7853981633974512766 ) ;
#95 = CIRCLE ( 'NONE', #154, 3.499999999999995115 ) ;
#96 = SECURITY_CLASSIFICATION ( '', '', #99 ) ;
#97 = ADVANCED_FACE ( 'NONE', ( #12 ), #265, .T. ) ;
#98 = EDGE_LOOP ( 'NONE', ( #47, #270, #269, #23 ) ) ;
#99 = SECURITY_CLASSIFICATION_LEVEL ( 'unclassified' ) ;
#100 = ORIENTED_EDGE ( 'NONE', *, *, #69, .T. ) ;
#101 = DATE_AND_TIME ( #249, #335 ) ;
#102 = LOCAL_TIME ( 9, 21, 59.00000000000000000, #278 ) ;
#103 = ORIENTED_EDGE ( 'NONE', *, *, #179, .F. ) ;
#104 = CIRCLE ( 'NONE', #175, 3.499999999999989342 ) ;
#105 = EDGE_CURVE ( 'NONE', #17, #2, #307, .T. ) ;
#106 = CC_DESIGN_DATE_AND_TIME_ASSIGNMENT ( #210, #61, ( #277 ) ) ;
#107 = ORIENTED_EDGE ( 'NONE', *, *, #309, .T. ) ;
#108 = EDGE_LOOP ( 'NONE', ( #83, #192, #66, #236 ) ) ;
#109 = DIRECTION ( 'NONE',  ( 0.0000000000000000000, 1.000000000000000000, 0.0000000000000000000 ) ) ;
#110 = AXIS2_PLACEMENT_3D ( 'NONE', #38, #241, #264 ) ;
#111 = DIRECTION ( 'NONE',  ( 0.0000000000000000000, 1.000000000000000000, 0.0000000000000000000 ) ) ;
#112 = FACE_OUTER_BOUND ( 'NONE', #151, .T. ) ;
#113 = CC_DESIGN_PERSON_AND_ORGANIZATION_ASSIGNMENT ( #85, #248, ( #75 ) ) ;
#114 = CARTESIAN_POINT ( 'NONE',  ( 2.583696190743918430E-13, -9.062386313690413585E-15, 74.00000000000000000 ) ) ;
#115 = DIRECTION ( 'NONE',  ( 3.491481338843133355E-15, -1.224646799147353207E-16, 1.000000000000000000 ) ) ;
#116 = ORIENTED_EDGE ( 'NONE', *, *, #319, .F. ) ;
#117 = DIRECTION ( 'NONE',  ( -3.491481338843133355E-15, 1.224646799147353207E-16, -1.000000000000000000 ) ) ;
#118 = VECTOR ( 'NONE', #53, 1000.000000000000000 ) ;
#119 = AXIS2_PLACEMENT_3D ( 'NONE', #90, #62, #136 ) ;
#120 = CARTESIAN_POINT ( 'NONE',  ( 7.342627735031661301E-15, -2.575447118390314232E-16, 2.103012166596475829 ) ) ;
#121 = CARTESIAN_POINT ( 'NONE',  ( 1.718603601168993892E-13, -3.499999999999992450, 25.00000000000000000 ) ) ;
#122 = EDGE_CURVE ( 'NONE', #52, #227, #247, .T. ) ;
#123 = APPROVAL_ROLE ( '' ) ;
#124 = AXIS2_PLACEMENT_3D ( 'NONE', #214, #189, #59 ) ;
#125 = EDGE_CURVE ( 'NONE', #176, #132, #177, .T. ) ;
#126 = DESIGN_CONTEXT ( 'detailed design', #246, 'design' ) ;
#127 = VERTEX_POINT ( 'NONE', #16 ) ;
#128 = VERTEX_POINT ( 'NONE', #121 ) ;
#129 = AXIS2_PLACEMENT_3D ( 'NONE', #143, #115, #219 ) ;
#130 = DIRECTION ( 'NONE',  ( 4.275831445896958607E-31, 1.000000000000000000, 1.224646799147353207E-16 ) ) ;
#131 = APPROVAL_STATUS ( 'not_yet_approved' ) ;
#132 = VERTEX_POINT ( 'NONE', #222 ) ;
#133 = ADVANCED_FACE ( 'NONE', ( #198 ), #166, .T. ) ;
#134 = DIRECTION ( 'NONE',  ( -3.491481338843133355E-15, 1.224646799147353207E-16, -1.000000000000000000 ) ) ;
#135 = CARTESIAN_POINT ( 'NONE',  ( 7.771254114733235897E-15, 3.499999999999986233, 2.103012166596476273 ) ) ;
#136 = DIRECTION ( 'NONE',  ( 4.275831445896958607E-31, 1.000000000000000000, 1.224646799147353207E-16 ) ) ;
#137 = APPROVAL ( #131, 'UNSPECIFIED' ) ;
#138 = DIRECTION ( 'NONE',  ( -3.491481338843133355E-15, 1.224646799147353207E-16, -1.000000000000000000 ) ) ;
#139 = CARTESIAN_POINT ( 'NONE',  ( 8.728703347107833388E-14, -3.061616997868383043E-15, 25.00000000000000000 ) ) ;
#140 = DIRECTION ( 'NONE',  ( -3.491481338843133355E-15, 1.224646799147353207E-16, -1.000000000000000000 ) ) ;
#141 = CARTESIAN_POINT ( 'NONE',  ( 2.583696190743918430E-13, -9.062386313690413585E-15, 74.00000000000000000 ) ) ;
#142 = CARTESIAN_POINT ( 'NONE',  ( 8.728703347107833388E-14, -3.061616997868383043E-15, 25.00000000000000000 ) ) ;
#143 = CARTESIAN_POINT ( 'NONE',  ( 7.342627735031661301E-15, -2.575447118390314232E-16, 2.103012166596475829 ) ) ;
#144 = CC_DESIGN_DATE_AND_TIME_ASSIGNMENT ( #101, #21, ( #96 ) ) ;
#145 = CARTESIAN_POINT ( 'NONE',  ( 4.286263797015712436E-16, -3.499999999999992450, -4.286263797015741525E-16 ) ) ;
#146 = CLOSED_SHELL ( 'NONE', ( #195, #97, #157, #27, #262 ) ) ;
#147 = CC_DESIGN_APPROVAL ( #245, ( #75 ) ) ;
#148 = CC_DESIGN_APPROVAL ( #330, ( #96 ) ) ;
#149 = CIRCLE ( 'NONE', #28, 3.499999999999986677 ) ;
#150 = ORIENTED_EDGE ( 'NONE', *, *, #88, .T. ) ;
#151 = EDGE_LOOP ( 'NONE', ( #206, #19 ) ) ;
#152 = COORDINATED_UNIVERSAL_TIME_OFFSET ( 1, 0, .AHEAD. ) ;
#153 = CARTESIAN_POINT ( 'NONE',  ( 0.0000000000000000000, 0.0000000000000000000, 0.0000000000000000000 ) ) ;
#154 = AXIS2_PLACEMENT_3D ( 'NONE', #14, #138, #7 ) ;
#155 = LINE ( 'NONE', #205, #170 ) ;
#156 = PERSON_AND_ORGANIZATION ( #160, #9 ) ;
#157 = ADVANCED_FACE ( 'NONE', ( #204 ), #275, .T. ) ;
#158 = AXIS2_PLACEMENT_3D ( 'NONE', #153, #25, #130 ) ;
#159 = APPROVAL_DATE_TIME ( #231, #137 ) ;
#160 = PERSON ( 'UNSPECIFIED', 'UNSPECIFIED', 'UNSPECIFIED', ('UNSPECIFIED'), ('UNSPECIFIED'), ('UNSPECIFIED') ) ;
#161 = EDGE_CURVE ( 'NONE', #173, #6, #67, .T. ) ;
#162 = DIRECTION ( 'NONE',  ( 3.491481338843133355E-15, -1.224646799147353207E-16, 1.000000000000000000 ) ) ;
#163 = DIRECTION ( 'NONE',  ( 0.0000000000000000000, 1.000000000000000000, 0.0000000000000000000 ) ) ;
#164 = CARTESIAN_POINT ( 'NONE',  ( 7.342627735031661301E-15, -2.575447118390314232E-16, 2.103012166596475829 ) ) ;
#165 = DIRECTION ( 'NONE',  ( -3.491481338843133355E-15, 1.224646799147353207E-16, -1.000000000000000000 ) ) ;
#166 = CYLINDRICAL_SURFACE ( 'NONE', #70, 3.499999999999992450 ) ;
#167 = LOCAL_TIME ( 9, 21, 59.00000000000000000, #299 ) ;
#168 = PLANE ( 'NONE',  #124 ) ;
#169 = CARTESIAN_POINT ( 'NONE',  ( 7.342627735031659723E-15, -3.499999999999987121, 2.103012166596475385 ) ) ;
#170 = VECTOR ( 'NONE', #253, 1000.000000000000114 ) ;
#171 = MANIFOLD_SOLID_BREP ( 'Corps-Déplacer/Copier1[1]', #93 ) ;
#172 = EDGE_CURVE ( 'NONE', #6, #173, #149, .T. ) ;
#173 = VERTEX_POINT ( 'NONE', #169 ) ;
#174 = PERSON_AND_ORGANIZATION ( #160, #9 ) ;
#175 = AXIS2_PLACEMENT_3D ( 'NONE', #142, #190, #60 ) ;
#176 = VERTEX_POINT ( 'NONE', #196 ) ;
#177 = CIRCLE ( 'NONE', #18, 2.699999999999995293 ) ;
#178 = CARTESIAN_POINT ( 'NONE',  ( 1.496541006063932272E-30, 3.499999999999992450, 4.286263797015726734E-16 ) ) ;
#179 = EDGE_CURVE ( 'NONE', #128, #68, #104, .T. ) ;
#180 = CARTESIAN_POINT ( 'NONE',  ( 1.718603601168992630E-13, -3.500000000000004441, 73.20000000000000284 ) ) ;
#181 = PERSON_AND_ORGANIZATION_ROLE ( 'creator' ) ;
#182 = PERSON_AND_ORGANIZATION_ROLE ( 'creator' ) ;
#183 = AXIS2_PLACEMENT_3D ( 'NONE', #217, #31, #286 ) ;
#184 = LINE ( 'NONE', #135, #64 ) ;
#185 = CARTESIAN_POINT ( 'NONE',  ( 8.728703347107833388E-14, -3.061616997868383043E-15, 25.00000000000000000 ) ) ;
#186 = CALENDAR_DATE ( 2021, 3, 9 ) ;
#187 = DIRECTION ( 'NONE',  ( -3.491481338843133355E-15, 1.224646799147353207E-16, -1.000000000000000000 ) ) ;
#188 = DIRECTION ( 'NONE',  ( -4.402125587170841573E-31, -1.000000000000000000, -1.239088197126295501E-16 ) ) ;
#189 = DIRECTION ( 'NONE',  ( 3.491481338843133355E-15, -1.224646799147353207E-16, 1.000000000000000000 ) ) ;
#190 = DIRECTION ( 'NONE',  ( -3.491481338843133355E-15, 1.224646799147353207E-16, -1.000000000000000000 ) ) ;
#191 = FACE_OUTER_BOUND ( 'NONE', #194, .T. ) ;
#192 = ORIENTED_EDGE ( 'NONE', *, *, #125, .T. ) ;
#193 = VECTOR ( 'NONE', #187, 1000.000000000000000 ) ;
#194 = EDGE_LOOP ( 'NONE', ( #327, #313, #232, #103 ) ) ;
#195 = ADVANCED_FACE ( 'NONE', ( #263 ), #197, .T. ) ;
#196 = CARTESIAN_POINT ( 'NONE',  ( 2.573526670465902914E-13, -2.700000000000004619, 74.00000000000000000 ) ) ;
#197 = CYLINDRICAL_SURFACE ( 'NONE', #110, 3.499999999999988010 ) ;
#198 = FACE_OUTER_BOUND ( 'NONE', #98, .T. ) ;
#199 = EDGE_CURVE ( 'NONE', #2, #173, #41, .T. ) ;
#200 = ORIENTED_EDGE ( 'NONE', *, *, #125, .F. ) ;
#201 = PRODUCT_RELATED_PRODUCT_CATEGORY ( 'detail', '', ( #252 ) ) ;
#202 = AXIS2_PLACEMENT_3D ( 'NONE', #73, #58, #257 ) ;
#203 = EDGE_LOOP ( 'NONE', ( #150, #293, #65, #276 ) ) ;
#204 = FACE_OUTER_BOUND ( 'NONE', #30, .T. ) ;
#205 = CARTESIAN_POINT ( 'NONE',  ( 2.583696190743918430E-13, 2.699999999999986411, 74.00000000000000000 ) ) ;
#206 = ORIENTED_EDGE ( 'NONE', *, *, #105, .F. ) ;
#207 = EDGE_CURVE ( 'NONE', #132, #52, #155, .T. ) ;
#208 = CARTESIAN_POINT ( 'NONE',  ( 7.771254114733235897E-15, 3.499999999999986233, 2.103012166596476273 ) ) ;
#209 = CARTESIAN_POINT ( 'NONE',  ( 1.496541006063930345E-30, 3.499999999999988010, 4.286263797015721311E-16 ) ) ;
#210 = DATE_AND_TIME ( #186, #215 ) ;
#211 = ORIENTED_EDGE ( 'NONE', *, *, #88, .F. ) ;
#212 = DIRECTION ( 'NONE',  ( -3.491481338843133355E-15, 1.224646799147353207E-16, -1.000000000000000000 ) ) ;
#213 = CARTESIAN_POINT ( 'NONE',  ( 2.555764340033173364E-13, 3.499999999999986233, 73.20000000000000284 ) ) ;
#214 = CARTESIAN_POINT ( 'NONE',  ( 8.728703347107833388E-14, 2.624579619658238224E-32, 25.00000000000000000 ) ) ;
#215 = LOCAL_TIME ( 9, 21, 59.00000000000000000, #283 ) ;
#216 = DIRECTION ( 'NONE',  ( -2.382254525458708792E-15, -0.7071067811865495711, -0.7071067811865455743 ) ) ;
#217 = CARTESIAN_POINT ( 'NONE',  ( 2.583696190743918430E-13, -9.062386313690413585E-15, 74.00000000000000000 ) ) ;
#218 = CARTESIAN_POINT ( 'NONE',  ( 7.342627735031659723E-15, -3.499999999999987121, 2.103012166596475385 ) ) ;
#219 = DIRECTION ( 'NONE',  ( -4.402125587170841573E-31, -1.000000000000000000, -1.239088197126295501E-16 ) ) ;
#220 = APPROVAL_PERSON_ORGANIZATION ( #314, #245, #323 ) ;
#221 = AXIS2_PLACEMENT_3D ( 'NONE', #141, #40, #111 ) ;
#222 = CARTESIAN_POINT ( 'NONE',  ( 2.583696190743918430E-13, 2.699999999999986411, 74.00000000000000000 ) ) ;
#223 = CC_DESIGN_SECURITY_CLASSIFICATION ( #96, ( #75 ) ) ;
#224 = CC_DESIGN_APPROVAL ( #137, ( #277 ) ) ;
#225 = ADVANCED_FACE ( 'NONE', ( #4 ), #230, .F. ) ;
#226 = ORIENTED_EDGE ( 'NONE', *, *, #172, .F. ) ;
#227 = VERTEX_POINT ( 'NONE', #180 ) ;
#228 =( GEOMETRIC_REPRESENTATION_CONTEXT ( 3 ) GLOBAL_UNCERTAINTY_ASSIGNED_CONTEXT ( ( #302 ) ) GLOBAL_UNIT_ASSIGNED_CONTEXT ( ( #261, #290, #91 ) ) REPRESENTATION_CONTEXT ( 'NONE', 'WORKASPACE' ) );
#229 = APPROVAL_ROLE ( '' ) ;
#230 = PLANE ( 'NONE',  #255 ) ;
#231 = DATE_AND_TIME ( #337, #55 ) ;
#232 = ORIENTED_EDGE ( 'NONE', *, *, #22, .T. ) ;
#233 = COORDINATED_UNIVERSAL_TIME_OFFSET ( 1, 0, .AHEAD. ) ;
#234 = ORIENTED_EDGE ( 'NONE', *, *, #199, .F. ) ;
#235 = CONICAL_SURFACE ( 'NONE', #291, 2.699999999999995293, 0.7853981633974512766 ) ;
#236 = ORIENTED_EDGE ( 'NONE', *, *, #39, .F. ) ;
#237 = DIRECTION ( 'NONE',  ( 4.402125587170841573E-31, 1.000000000000000000, 1.239088197126295501E-16 ) ) ;
#238 = CARTESIAN_POINT ( 'NONE',  ( 8.728703347107833388E-14, 2.624579619658238224E-32, 25.00000000000000000 ) ) ;
#239 = ADVANCED_FACE ( 'NONE', ( #56 ), #279, .F. ) ;
#240 = CARTESIAN_POINT ( 'NONE',  ( 2.587002737101616355E-13, -2.700000000000004619, 74.00000000000000000 ) ) ;
#241 = DIRECTION ( 'NONE',  ( -3.491481338843133355E-15, 1.224646799147353207E-16, -1.000000000000000000 ) ) ;
#242 = DIRECTION ( 'NONE',  ( 0.0000000000000000000, 1.000000000000000000, 0.0000000000000000000 ) ) ;
#243 = VECTOR ( 'NONE', #216, 1000.000000000000114 ) ;
#244 = APPROVAL_PERSON_ORGANIZATION ( #254, #137, #229 ) ;
#245 = APPROVAL ( #260, 'UNSPECIFIED' ) ;
#246 = APPLICATION_CONTEXT ( 'configuration controlled 3d designs of mechanical parts and assemblies' ) ;
#247 = CIRCLE ( 'NONE', #82, 3.499999999999995115 ) ;
#248 = PERSON_AND_ORGANIZATION_ROLE ( 'design_supplier' ) ;
#249 = CALENDAR_DATE ( 2021, 3, 9 ) ;
#250 = APPROVAL_DATE_TIME ( #271, #330 ) ;
#251 = APPROVAL_PERSON_ORGANIZATION ( #44, #330, #123 ) ;
#252 = PRODUCT ( '328', '328', '', ( #274 ) ) ;
#253 = DIRECTION ( 'NONE',  ( -2.468850131082257455E-15, 0.7071067811865497932, -0.7071067811865453523 ) ) ;
#254 = PERSON_AND_ORGANIZATION ( #160, #9 ) ;
#255 = AXIS2_PLACEMENT_3D ( 'NONE', #311, #212, #315 ) ;
#256 = CC_DESIGN_PERSON_AND_ORGANIZATION_ASSIGNMENT ( #156, #181, ( #75 ) ) ;
#257 = DIRECTION ( 'NONE',  ( 1.000000000000000000, 0.0000000000000000000, 0.0000000000000000000 ) ) ;
#258 = ORIENTED_EDGE ( 'NONE', *, *, #105, .T. ) ;
#259 = DIRECTION ( 'NONE',  ( 0.0000000000000000000, 1.000000000000000000, 0.0000000000000000000 ) ) ;
#260 = APPROVAL_STATUS ( 'not_yet_approved' ) ;
#261 =( LENGTH_UNIT ( ) NAMED_UNIT ( * ) SI_UNIT ( .MILLI., .METRE. ) );
#262 = ADVANCED_FACE ( 'NONE', ( #112 ), #168, .T. ) ;
#263 = FACE_OUTER_BOUND ( 'NONE', #57, .T. ) ;
#264 = DIRECTION ( 'NONE',  ( 4.275831445896958607E-31, 1.000000000000000000, 1.224646799147353207E-16 ) ) ;
#265 = CONICAL_SURFACE ( 'NONE', #129, 3.499999999999986677, 1.029744258676649649 ) ;
#266 = PERSON_AND_ORGANIZATION_ROLE ( 'classification_officer' ) ;
#267 = VECTOR ( 'NONE', #26, 1000.000000000000000 ) ;
#268 = CIRCLE ( 'NONE', #328, 3.499999999999989342 ) ;
#269 = ORIENTED_EDGE ( 'NONE', *, *, #309, .F. ) ;
#270 = ORIENTED_EDGE ( 'NONE', *, *, #45, .T. ) ;
#271 = DATE_AND_TIME ( #336, #167 ) ;
#272 = CYLINDRICAL_SURFACE ( 'NONE', #158, 3.499999999999988010 ) ;
#273 = ORIENTED_EDGE ( 'NONE', *, *, #172, .T. ) ;
#274 = MECHANICAL_CONTEXT ( 'NONE', #289, 'mechanical' ) ;
#275 = CONICAL_SURFACE ( 'NONE', #280, 3.499999999999986677, 1.029744258676649649 ) ;
#276 = ORIENTED_EDGE ( 'NONE', *, *, #207, .F. ) ;
#277 = PRODUCT_DEFINITION ( 'UNKNOWN', '', #75, #126 ) ;
#278 = COORDINATED_UNIVERSAL_TIME_OFFSET ( 1, 0, .AHEAD. ) ;
#279 = PLANE ( 'NONE',  #297 ) ;
#280 = AXIS2_PLACEMENT_3D ( 'NONE', #310, #162, #188 ) ;
#281 = APPLICATION_PROTOCOL_DEFINITION ( 'international standard', 'config_control_design', 1994, #246 ) ;
#282 = DIRECTION ( 'NONE',  ( -3.491481338843133355E-15, 1.224646799147353207E-16, -1.000000000000000000 ) ) ;
#283 = COORDINATED_UNIVERSAL_TIME_OFFSET ( 1, 0, .AHEAD. ) ;
#284 = ADVANCED_FACE ( 'NONE', ( #317 ), #94, .T. ) ;
#285 = DIRECTION ( 'NONE',  ( -3.491481338843133355E-15, 1.224646799147353207E-16, -1.000000000000000000 ) ) ;
#286 = DIRECTION ( 'NONE',  ( 0.0000000000000000000, 1.000000000000000000, 0.0000000000000000000 ) ) ;
#287 = ORIENTED_EDGE ( 'NONE', *, *, #333, .T. ) ;
#288 = FACE_OUTER_BOUND ( 'NONE', #203, .T. ) ;
#289 = APPLICATION_CONTEXT ( 'configuration controlled 3d designs of mechanical parts and assemblies' ) ;
#290 =( NAMED_UNIT ( * ) PLANE_ANGLE_UNIT ( ) SI_UNIT ( $, .RADIAN. ) );
#291 = AXIS2_PLACEMENT_3D ( 'NONE', #114, #63, #259 ) ;
#292 = CARTESIAN_POINT ( 'NONE',  ( 2.583696190743918430E-13, -9.062386313690413585E-15, 74.00000000000000000 ) ) ;
#293 = ORIENTED_EDGE ( 'NONE', *, *, #36, .T. ) ;
#294 = APPLICATION_PROTOCOL_DEFINITION ( 'international standard', 'config_control_design', 1994, #289 ) ;
#295 = ADVANCED_FACE ( 'NONE', ( #191 ), #322, .T. ) ;
#296 = ADVANCED_BREP_SHAPE_REPRESENTATION ( '328', ( #171, #54, #202 ), #228 ) ;
#297 = AXIS2_PLACEMENT_3D ( 'NONE', #238, #84, #10 ) ;
#298 = ORIENTED_EDGE ( 'NONE', *, *, #1, .T. ) ;
#299 = COORDINATED_UNIVERSAL_TIME_OFFSET ( 1, 0, .AHEAD. ) ;
#300 = ORIENTED_EDGE ( 'NONE', *, *, #1, .F. ) ;
#301 = ORIENTED_EDGE ( 'NONE', *, *, #161, .T. ) ;
#302 = UNCERTAINTY_MEASURE_WITH_UNIT (LENGTH_MEASURE( 1.000000000000000082E-05 ), #261, 'distance_accuracy_value', 'NONE');
#303 = ADVANCED_FACE ( 'NONE', ( #288 ), #235, .T. ) ;
#304 = EDGE_LOOP ( 'NONE', ( #107, #332 ) ) ;
#305 = APPROVAL_STATUS ( 'not_yet_approved' ) ;
#306 = LINE ( 'NONE', #178, #118 ) ;
#307 = CIRCLE ( 'NONE', #334, 3.499999999999989342 ) ;
#308 = CARTESIAN_POINT ( 'NONE',  ( 8.728703347107833388E-14, 3.499999999999986233, 25.00000000000000000 ) ) ;
#309 = EDGE_CURVE ( 'NONE', #68, #128, #268, .T. ) ;
#310 = CARTESIAN_POINT ( 'NONE',  ( 7.342627735031661301E-15, -2.575447118390314232E-16, 2.103012166596475829 ) ) ;
#311 = CARTESIAN_POINT ( 'NONE',  ( 2.583696190743918430E-13, 2.024675706593490802E-32, 74.00000000000000000 ) ) ;
#312 = DATE_AND_TIME ( #87, #102 ) ;
#313 = ORIENTED_EDGE ( 'NONE', *, *, #39, .T. ) ;
#314 = PERSON_AND_ORGANIZATION ( #160, #9 ) ;
#315 = DIRECTION ( 'NONE',  ( 4.275831445896958607E-31, 1.000000000000000000, 1.224646799147353207E-16 ) ) ;
#316 = EDGE_LOOP ( 'NONE', ( #234, #287, #298, #5 ) ) ;
#317 = FACE_OUTER_BOUND ( 'NONE', #108, .T. ) ;
#318 = AXIS2_PLACEMENT_3D ( 'NONE', #164, #33, #237 ) ;
#319 = EDGE_CURVE ( 'NONE', #127, #173, #34, .T. ) ;
#320 = PRODUCT_DEFINITION_SHAPE ( 'NONE', 'NONE',  #277 ) ;
#321 = CARTESIAN_POINT ( 'NONE',  ( 8.728703347107833388E-14, -3.061616997868383043E-15, 25.00000000000000000 ) ) ;
#322 = CYLINDRICAL_SURFACE ( 'NONE', #119, 3.499999999999992450 ) ;
#323 = APPROVAL_ROLE ( '' ) ;
#324 = LINE ( 'NONE', #145, #193 ) ;
#325 = DIRECTION ( 'NONE',  ( 4.402125587170841573E-31, 1.000000000000000000, 1.239088197126295501E-16 ) ) ;
#326 = DIRECTION ( 'NONE',  ( -3.491481338843133355E-15, 1.224646799147353207E-16, -1.000000000000000000 ) ) ;
#327 = ORIENTED_EDGE ( 'NONE', *, *, #45, .F. ) ;
#328 = AXIS2_PLACEMENT_3D ( 'NONE', #185, #165, #109 ) ;
#329 = DIRECTION ( 'NONE',  ( 0.0000000000000000000, 1.000000000000000000, 0.0000000000000000000 ) ) ;
#330 = APPROVAL ( #305, 'UNSPECIFIED' ) ;
#331 = DIRECTION ( 'NONE',  ( 4.275831445896958607E-31, 1.000000000000000000, 1.224646799147353207E-16 ) ) ;
#332 = ORIENTED_EDGE ( 'NONE', *, *, #179, .T. ) ;
#333 = EDGE_CURVE ( 'NONE', #2, #17, #51, .T. ) ;
#334 = AXIS2_PLACEMENT_3D ( 'NONE', #321, #326, #242 ) ;
#335 = LOCAL_TIME ( 9, 21, 59.00000000000000000, #152 ) ;
#336 = CALENDAR_DATE ( 2021, 3, 9 ) ;
#337 = CALENDAR_DATE ( 2021, 3, 9 ) ;
ENDSEC;
END-ISO-10303-21;
