ISO-10303-21;
HEADER;
FILE_DESCRIPTION (( 'STEP AP203' ),
    '1' );
FILE_NAME ('327116.step',
    '2021-12-02T07:16:37',
    ( '' ),
    ( '' ),
    'SwSTEP 2.0',
    'SolidWorks 2019',
    '' );
FILE_SCHEMA (( 'CONFIG_CONTROL_DESIGN' ));
ENDSEC;

DATA;
#1 = COORDINATED_UNIVERSAL_TIME_OFFSET ( 1, 0, .AHEAD. ) ;
#2 = MANIFOLD_SOLID_BREP ( 'Corps-Déplacer/Copier1[2]', #122 ) ;
#3 = DIRECTION ( 'NONE',  ( 4.275831445896959482E-31, 1.000000000000000000, 1.224646799147353454E-16 ) ) ;
#4 = EDGE_LOOP ( 'NONE', ( #252 ) ) ;
#5 = APPROVAL_ROLE ( '' ) ;
#6 = AXIS2_PLACEMENT_3D ( 'NONE', #265, #225, #107 ) ;
#7 = APPROVAL_PERSON_ORGANIZATION ( #149, #52, #5 ) ;
#8 = DIRECTION ( 'NONE',  ( 0.0000000000000000000, 1.000000000000000000, 0.0000000000000000000 ) ) ;
#9 = EDGE_CURVE ( 'NONE', #111, #111, #301, .T. ) ;
#10 = DIRECTION ( 'NONE',  ( 0.0000000000000000000, 1.000000000000000000, 0.0000000000000000000 ) ) ;
#11 = AXIS2_PLACEMENT_3D ( 'NONE', #153, #86, #154 ) ;
#12 = LOCAL_TIME ( 8, 16, 37.00000000000000000, #230 ) ;
#13 = CARTESIAN_POINT ( 'NONE',  ( -7.369005128434717380E-32, 2.584699062555539948E-33, -2.110566952328710186E-17 ) ) ;
#14 = DIRECTION ( 'NONE',  ( -3.491481338843133355E-15, 1.224646799147353454E-16, -1.000000000000000000 ) ) ;
#15 = DIRECTION ( 'NONE',  ( -3.491481338843133355E-15, 1.224646799147353454E-16, -1.000000000000000000 ) ) ;
#16 = DIRECTION ( 'NONE',  ( -3.491481338843133355E-15, 1.224646799147353454E-16, -1.000000000000000000 ) ) ;
#17 = PERSON_AND_ORGANIZATION ( #279, #288 ) ;
#18 = ADVANCED_FACE ( 'NONE', ( #223, #195 ), #32, .T. ) ;
#19 = CALENDAR_DATE ( 2021, 2, 12 ) ;
#20 = EDGE_LOOP ( 'NONE', ( #168 ) ) ;
#21 = PRODUCT_RELATED_PRODUCT_CATEGORY ( 'detail', '', ( #298 ) ) ;
#22 = SECURITY_CLASSIFICATION ( '', '', #93 ) ;
#23 = CARTESIAN_POINT ( 'NONE',  ( 3.615453511830512295E-14, 1.274999999999996803, 10.35507041555162822 ) ) ;
#24 = ORIENTED_EDGE ( 'NONE', *, *, #203, .F. ) ;
#25 = ADVANCED_BREP_SHAPE_REPRESENTATION ( '327116', ( #217, #2, #128 ), #156 ) ;
#26 = UNCERTAINTY_MEASURE_WITH_UNIT (LENGTH_MEASURE( 1.000000000000000082E-05 ), #99, 'distance_accuracy_value', 'NONE');
#27 = APPROVAL_ROLE ( '' ) ;
#28 = APPROVAL_DATE_TIME ( #280, #52 ) ;
#29 = CONICAL_SURFACE ( 'NONE', #11, 1.274999999999998135, 0.5235987755982921543 ) ;
#30 = APPROVAL_STATUS ( 'not_yet_approved' ) ;
#31 = SHAPE_DEFINITION_REPRESENTATION ( #212, #25 ) ;
#32 = CYLINDRICAL_SURFACE ( 'NONE', #83, 1.499999999999999334 ) ;
#33 = CARTESIAN_POINT ( 'NONE',  ( 0.0000000000000000000, 0.0000000000000000000, 0.0000000000000000000 ) ) ;
#34 = FACE_OUTER_BOUND ( 'NONE', #44, .T. ) ;
#35 = ORIENTED_EDGE ( 'NONE', *, *, #151, .F. ) ;
#36 = DIRECTION ( 'NONE',  ( 3.491481338843133355E-15, -1.224646799147353454E-16, 1.000000000000000000 ) ) ;
#37 = VERTEX_POINT ( 'NONE', #292 ) ;
#38 = VERTEX_POINT ( 'NONE', #134 ) ;
#39 = ADVANCED_FACE ( 'NONE', ( #126, #194 ), #100, .T. ) ;
#40 = DIRECTION ( 'NONE',  ( 0.0000000000000000000, 1.000000000000000000, 0.0000000000000000000 ) ) ;
#41 = PRODUCT_DEFINITION ( 'UNKNOWN', '', #61, #214 ) ;
#42 = DIRECTION ( 'NONE',  ( -4.275831445896959482E-31, -1.000000000000000000, -1.224646799147353454E-16 ) ) ;
#43 = COORDINATED_UNIVERSAL_TIME_OFFSET ( 1, 0, .AHEAD. ) ;
#44 = EDGE_LOOP ( 'NONE', ( #47 ) ) ;
#45 = DATE_TIME_ROLE ( 'classification_date' ) ;
#46 = AXIS2_PLACEMENT_3D ( 'NONE', #110, #62, #202 ) ;
#47 = ORIENTED_EDGE ( 'NONE', *, *, #219, .F. ) ;
#48 = FACE_OUTER_BOUND ( 'NONE', #208, .T. ) ;
#49 = AXIS2_PLACEMENT_3D ( 'NONE', #224, #198, #287 ) ;
#50 = APPROVAL_PERSON_ORGANIZATION ( #116, #69, #27 ) ;
#51 = CARTESIAN_POINT ( 'NONE',  ( 8.728703347107833388E-14, -3.035766082959412415E-15, 25.00000000000000000 ) ) ;
#52 = APPROVAL ( #30, 'UNSPECIFIED' ) ;
#53 = CARTESIAN_POINT ( 'NONE',  ( 3.491481338843133355E-14, -1.224646799147353454E-15, 10.00000000000000000 ) ) ;
#54 = DIRECTION ( 'NONE',  ( -3.491481338843133355E-15, 1.224646799147353454E-16, -1.000000000000000000 ) ) ;
#55 = ADVANCED_FACE ( 'NONE', ( #239 ), #259, .F. ) ;
#56 = DIRECTION ( 'NONE',  ( -3.491481338843133355E-15, 1.224646799147353454E-16, -1.000000000000000000 ) ) ;
#57 = FACE_OUTER_BOUND ( 'NONE', #68, .T. ) ;
#58 = CARTESIAN_POINT ( 'NONE',  ( 3.491481338843133355E-14, 1.479999999999998650, 10.00000000000000000 ) ) ;
#59 = ADVANCED_FACE ( 'NONE', ( #281, #285 ), #106, .T. ) ;
#60 = AXIS2_PLACEMENT_3D ( 'NONE', #248, #291, #42 ) ;
#61 = PRODUCT_DEFINITION_FORMATION_WITH_SPECIFIED_SOURCE ( 'ANY', '', #298, .NOT_KNOWN. ) ;
#62 = DIRECTION ( 'NONE',  ( -3.491481338843133355E-15, 1.224646799147353454E-16, -1.000000000000000000 ) ) ;
#63 = CC_DESIGN_PERSON_AND_ORGANIZATION_ASSIGNMENT ( #188, #251, ( #22 ) ) ;
#64 = DIRECTION ( 'NONE',  ( 0.0000000000000000000, 1.000000000000000000, 0.0000000000000000000 ) ) ;
#65 = DIRECTION ( 'NONE',  ( 0.0000000000000000000, -1.000000000000000000, 0.0000000000000000000 ) ) ;
#66 = AXIS2_PLACEMENT_3D ( 'NONE', #125, #56, #282 ) ;
#67 = PERSON_AND_ORGANIZATION ( #279, #288 ) ;
#68 = EDGE_LOOP ( 'NONE', ( #140 ) ) ;
#69 = APPROVAL ( #273, 'UNSPECIFIED' ) ;
#70 = CALENDAR_DATE ( 2021, 2, 12 ) ;
#71 = APPLICATION_PROTOCOL_DEFINITION ( 'international standard', 'config_control_design', 1994, #236 ) ;
#72 = EDGE_LOOP ( 'NONE', ( #120 ) ) ;
#73 = ORIENTED_EDGE ( 'NONE', *, *, #189, .F. ) ;
#74 = DIRECTION ( 'NONE',  ( -3.491481338843133355E-15, 1.224646799147353454E-16, -1.000000000000000000 ) ) ;
#75 = EDGE_CURVE ( 'NONE', #38, #38, #247, .T. ) ;
#76 = CARTESIAN_POINT ( 'NONE',  ( 3.491481338843133355E-14, -1.224646799147353454E-15, 10.00000000000000000 ) ) ;
#77 = AXIS2_PLACEMENT_3D ( 'NONE', #80, #101, #3 ) ;
#78 = CC_DESIGN_DATE_AND_TIME_ASSIGNMENT ( #114, #45, ( #22 ) ) ;
#79 = AXIS2_PLACEMENT_3D ( 'NONE', #245, #36, #65 ) ;
#80 = CARTESIAN_POINT ( 'NONE',  ( 0.0000000000000000000, 0.0000000000000000000, 0.0000000000000000000 ) ) ;
#81 = EDGE_CURVE ( 'NONE', #267, #267, #283, .T. ) ;
#82 = FACE_OUTER_BOUND ( 'NONE', #146, .T. ) ;
#83 = AXIS2_PLACEMENT_3D ( 'NONE', #33, #102, #177 ) ;
#84 = CONICAL_SURFACE ( 'NONE', #79, 1.499999999999996003, 0.1745329251994263975 ) ;
#85 = DIRECTION ( 'NONE',  ( -4.275831445896959482E-31, -1.000000000000000000, -1.224646799147353454E-16 ) ) ;
#86 = DIRECTION ( 'NONE',  ( -3.491481338843133355E-15, 1.224646799147353454E-16, -1.000000000000000000 ) ) ;
#87 = CARTESIAN_POINT ( 'NONE',  ( 3.615453511830512295E-14, -1.268130383935075731E-15, 10.35507041555162822 ) ) ;
#88 = CC_DESIGN_DATE_AND_TIME_ASSIGNMENT ( #190, #271, ( #41 ) ) ;
#89 = TOROIDAL_SURFACE ( 'NONE', #169, 3.274999999999999911, 2.000000000000000000 ) ;
#90 = CARTESIAN_POINT ( 'NONE',  ( 8.849961221477468513E-14, 1.305384493975576765, 25.34729635533384240 ) ) ;
#91 = EDGE_CURVE ( 'NONE', #246, #246, #193, .T. ) ;
#92 = PLANE ( 'NONE',  #222 ) ;
#93 = SECURITY_CLASSIFICATION_LEVEL ( 'unclassified' ) ;
#94 = CC_DESIGN_PERSON_AND_ORGANIZATION_ASSIGNMENT ( #67, #299, ( #61 ) ) ;
#95 = EDGE_LOOP ( 'NONE', ( #258 ) ) ;
#96 =( NAMED_UNIT ( * ) PLANE_ANGLE_UNIT ( ) SI_UNIT ( $, .RADIAN. ) );
#97 = DIRECTION ( 'NONE',  ( 0.0000000000000000000, 0.0000000000000000000, 1.000000000000000000 ) ) ;
#98 = ORIENTED_EDGE ( 'NONE', *, *, #203, .T. ) ;
#99 =( LENGTH_UNIT ( ) NAMED_UNIT ( * ) SI_UNIT ( .MILLI., .METRE. ) );
#100 = CONICAL_SURFACE ( 'NONE', #209, 1.479999999999998650, 0.7853981633974428389 ) ;
#101 = DIRECTION ( 'NONE',  ( -3.491481338843133355E-15, 1.224646799147353454E-16, -1.000000000000000000 ) ) ;
#102 = DIRECTION ( 'NONE',  ( -3.491481338843133355E-15, 1.224646799147353454E-16, -1.000000000000000000 ) ) ;
#103 = EDGE_LOOP ( 'NONE', ( #147 ) ) ;
#104 = AXIS2_PLACEMENT_3D ( 'NONE', #133, #185, #159 ) ;
#105 = ORIENTED_EDGE ( 'NONE', *, *, #91, .T. ) ;
#106 = CYLINDRICAL_SURFACE ( 'NONE', #77, 1.479999999999999316 ) ;
#107 = DIRECTION ( 'NONE',  ( -4.275831445896959482E-31, -1.000000000000000000, -1.224646799147353454E-16 ) ) ;
#108 = CARTESIAN_POINT ( 'NONE',  ( 8.728703347107827472E-16, -3.061616997868381785E-17, 0.2499999999999998335 ) ) ;
#109 = ADVANCED_FACE ( 'NONE', ( #48, #174 ), #89, .F. ) ;
#110 = CARTESIAN_POINT ( 'NONE',  ( 2.119329172677781757E-13, -7.433606070824434221E-15, 60.69999999999999574 ) ) ;
#111 = VERTEX_POINT ( 'NONE', #181 ) ;
#112 = CC_DESIGN_APPROVAL ( #52, ( #22 ) ) ;
#113 = APPROVAL_ROLE ( '' ) ;
#114 = DATE_AND_TIME ( #19, #179 ) ;
#115 = EDGE_LOOP ( 'NONE', ( #144 ) ) ;
#116 = PERSON_AND_ORGANIZATION ( #279, #288 ) ;
#117 = ORIENTED_EDGE ( 'NONE', *, *, #151, .T. ) ;
#118 = ADVANCED_FACE ( 'NONE', ( #34, #261 ), #129, .T. ) ;
#119 = CARTESIAN_POINT ( 'NONE',  ( 8.728703347107833388E-16, 1.479999999999998650, 0.2500000000000000000 ) ) ;
#120 = ORIENTED_EDGE ( 'NONE', *, *, #171, .F. ) ;
#121 = COORDINATED_UNIVERSAL_TIME_OFFSET ( 1, 0, .AHEAD. ) ;
#122 = CLOSED_SHELL ( 'NONE', ( #196, #39, #59, #164 ) ) ;
#123 = EDGE_LOOP ( 'NONE', ( #73 ) ) ;
#124 = DIRECTION ( 'NONE',  ( -3.491481338843133355E-15, 1.224646799147353454E-16, -1.000000000000000000 ) ) ;
#125 = CARTESIAN_POINT ( 'NONE',  ( -1.473801025686943476E-31, 5.169398125111079896E-33, -4.221133904657420372E-17 ) ) ;
#126 = FACE_BOUND ( 'NONE', #4, .T. ) ;
#127 = CIRCLE ( 'NONE', #294, 1.200000000000002842 ) ;
#128 = AXIS2_PLACEMENT_3D ( 'NONE', #233, #97, #170 ) ;
#129 = CYLINDRICAL_SURFACE ( 'NONE', #49, 1.274999999999998801 ) ;
#130 = DIRECTION ( 'NONE',  ( -3.491481338843133355E-15, 1.224646799147353454E-16, -1.000000000000000000 ) ) ;
#131 = CARTESIAN_POINT ( 'NONE',  ( 2.129803616694311221E-13, -7.470345474798856659E-15, 61.00000000000000000 ) ) ;
#132 = AXIS2_PLACEMENT_3D ( 'NONE', #250, #16, #40 ) ;
#133 = CARTESIAN_POINT ( 'NONE',  ( 8.849961221477468513E-14, -3.104148534859897150E-15, 25.34729635533384240 ) ) ;
#134 = CARTESIAN_POINT ( 'NONE',  ( 8.728703347107833388E-14, 1.274999999999996581, 25.00000000000000000 ) ) ;
#135 = ADVANCED_FACE ( 'NONE', ( #82 ), #178, .F. ) ;
#136 = FACE_OUTER_BOUND ( 'NONE', #103, .T. ) ;
#137 = LOCAL_TIME ( 8, 16, 37.00000000000000000, #121 ) ;
#138 = DATE_AND_TIME ( #165, #12 ) ;
#139 = DATE_AND_TIME ( #70, #137 ) ;
#140 = ORIENTED_EDGE ( 'NONE', *, *, #91, .F. ) ;
#141 = ADVANCED_FACE ( 'NONE', ( #57, #199 ), #29, .T. ) ;
#142 = VERTEX_POINT ( 'NONE', #23 ) ;
#143 = AXIS2_PLACEMENT_3D ( 'NONE', #131, #227, #64 ) ;
#144 = ORIENTED_EDGE ( 'NONE', *, *, #81, .F. ) ;
#145 = PERSON_AND_ORGANIZATION_ROLE ( 'design_owner' ) ;
#146 = EDGE_LOOP ( 'NONE', ( #105 ) ) ;
#147 = ORIENTED_EDGE ( 'NONE', *, *, #9, .T. ) ;
#148 = CIRCLE ( 'NONE', #255, 1.479999999999998650 ) ;
#149 = PERSON_AND_ORGANIZATION ( #279, #288 ) ;
#150 = DIRECTION ( 'NONE',  ( -3.491481338843133355E-15, 1.224646799147353454E-16, -1.000000000000000000 ) ) ;
#151 = EDGE_CURVE ( 'NONE', #37, #37, #226, .T. ) ;
#152 = AXIS2_PLACEMENT_3D ( 'NONE', #87, #289, #270 ) ;
#153 = CARTESIAN_POINT ( 'NONE',  ( 3.615453511830512295E-14, -1.268130383935075731E-15, 10.35507041555162822 ) ) ;
#154 = DIRECTION ( 'NONE',  ( 0.0000000000000000000, 1.000000000000000000, 0.0000000000000000000 ) ) ;
#155 = AXIS2_PLACEMENT_3D ( 'NONE', #76, #74, #262 ) ;
#156 =( GEOMETRIC_REPRESENTATION_CONTEXT ( 3 ) GLOBAL_UNCERTAINTY_ASSIGNED_CONTEXT ( ( #26 ) ) GLOBAL_UNIT_ASSIGNED_CONTEXT ( ( #99, #96, #167 ) ) REPRESENTATION_CONTEXT ( 'NONE', 'WORKASPACE' ) );
#157 = FACE_BOUND ( 'NONE', #274, .T. ) ;
#158 = VERTEX_POINT ( 'NONE', #249 ) ;
#159 = DIRECTION ( 'NONE',  ( 0.0000000000000000000, 1.000000000000000000, 0.0000000000000000000 ) ) ;
#160 = AXIS2_PLACEMENT_3D ( 'NONE', #286, #54, #192 ) ;
#161 = LOCAL_TIME ( 8, 16, 37.00000000000000000, #238 ) ;
#162 = VERTEX_POINT ( 'NONE', #119 ) ;
#163 = EDGE_LOOP ( 'NONE', ( #256 ) ) ;
#164 = ADVANCED_FACE ( 'NONE', ( #206 ), #183, .T. ) ;
#165 = CALENDAR_DATE ( 2021, 2, 12 ) ;
#166 = ORIENTED_EDGE ( 'NONE', *, *, #75, .F. ) ;
#167 =( NAMED_UNIT ( * ) SI_UNIT ( $, .STERADIAN. ) SOLID_ANGLE_UNIT ( ) );
#168 = ORIENTED_EDGE ( 'NONE', *, *, #290, .F. ) ;
#169 = AXIS2_PLACEMENT_3D ( 'NONE', #51, #150, #243 ) ;
#170 = DIRECTION ( 'NONE',  ( 1.000000000000000000, 0.0000000000000000000, 0.0000000000000000000 ) ) ;
#171 = EDGE_CURVE ( 'NONE', #268, #268, #234, .T. ) ;
#172 = CALENDAR_DATE ( 2021, 2, 12 ) ;
#173 = ORIENTED_EDGE ( 'NONE', *, *, #290, .T. ) ;
#174 = FACE_OUTER_BOUND ( 'NONE', #95, .T. ) ;
#175 = CARTESIAN_POINT ( 'NONE',  ( 2.129803616694311221E-13, 8.998558695971062171E-33, 61.00000000000000000 ) ) ;
#176 = CC_DESIGN_PERSON_AND_ORGANIZATION_ASSIGNMENT ( #232, #215, ( #41 ) ) ;
#177 = DIRECTION ( 'NONE',  ( 4.275831445896960358E-31, 1.000000000000000000, 1.224646799147353454E-16 ) ) ;
#178 = PLANE ( 'NONE',  #6 ) ;
#179 = LOCAL_TIME ( 8, 16, 37.00000000000000000, #43 ) ;
#180 = FACE_OUTER_BOUND ( 'NONE', #300, .T. ) ;
#181 = CARTESIAN_POINT ( 'NONE',  ( 3.785471652766323151E-31, 1.230000000000001537, 1.084202172485504434E-16 ) ) ;
#182 = APPLICATION_CONTEXT ( 'configuration controlled 3d designs of mechanical parts and assemblies' ) ;
#183 = PLANE ( 'NONE',  #60 ) ;
#184 = CLOSED_SHELL ( 'NONE', ( #135, #141, #118, #109, #240, #18, #254, #55 ) ) ;
#185 = DIRECTION ( 'NONE',  ( -3.491481338843133355E-15, 1.224646799147353454E-16, -1.000000000000000000 ) ) ;
#186 = CC_DESIGN_PERSON_AND_ORGANIZATION_ASSIGNMENT ( #17, #207, ( #61 ) ) ;
#187 = CARTESIAN_POINT ( 'NONE',  ( 2.129803616694311221E-13, -7.470345474798856659E-15, 61.00000000000000000 ) ) ;
#188 = PERSON_AND_ORGANIZATION ( #279, #288 ) ;
#189 = EDGE_CURVE ( 'NONE', #293, #293, #200, .T. ) ;
#190 = DATE_AND_TIME ( #172, #295 ) ;
#191 = EDGE_LOOP ( 'NONE', ( #35 ) ) ;
#192 = DIRECTION ( 'NONE',  ( 0.0000000000000000000, 1.000000000000000000, 0.0000000000000000000 ) ) ;
#193 = CIRCLE ( 'NONE', #264, 1.479999999999999982 ) ;
#194 = FACE_OUTER_BOUND ( 'NONE', #272, .T. ) ;
#195 = FACE_OUTER_BOUND ( 'NONE', #163, .T. ) ;
#196 = ADVANCED_FACE ( 'NONE', ( #136 ), #92, .F. ) ;
#197 = CALENDAR_DATE ( 2021, 2, 12 ) ;
#198 = DIRECTION ( 'NONE',  ( -3.491481338843133355E-15, 1.224646799147353454E-16, -1.000000000000000000 ) ) ;
#199 = FACE_BOUND ( 'NONE', #213, .T. ) ;
#200 = CIRCLE ( 'NONE', #104, 1.305384493975579874 ) ;
#201 = DIRECTION ( 'NONE',  ( 3.903912049433589810E-31, 1.000000000000000000, 1.098853553194769027E-16 ) ) ;
#202 = DIRECTION ( 'NONE',  ( 0.0000000000000000000, 1.000000000000000000, 0.0000000000000000000 ) ) ;
#203 = EDGE_CURVE ( 'NONE', #158, #158, #127, .T. ) ;
#204 = CARTESIAN_POINT ( 'NONE',  ( 2.119329172677781757E-13, 1.499999999999995559, 60.69999999999999574 ) ) ;
#205 = CC_DESIGN_SECURITY_CLASSIFICATION ( #22, ( #61 ) ) ;
#206 = FACE_OUTER_BOUND ( 'NONE', #115, .T. ) ;
#207 = PERSON_AND_ORGANIZATION_ROLE ( 'creator' ) ;
#208 = EDGE_LOOP ( 'NONE', ( #166 ) ) ;
#209 = AXIS2_PLACEMENT_3D ( 'NONE', #221, #263, #244 ) ;
#210 = APPROVAL_DATE_TIME ( #139, #69 ) ;
#211 = ORIENTED_EDGE ( 'NONE', *, *, #219, .T. ) ;
#212 = PRODUCT_DEFINITION_SHAPE ( 'NONE', 'NONE',  #41 ) ;
#213 = EDGE_LOOP ( 'NONE', ( #211 ) ) ;
#214 = DESIGN_CONTEXT ( 'detailed design', #182, 'design' ) ;
#215 = PERSON_AND_ORGANIZATION_ROLE ( 'creator' ) ;
#216 = APPROVAL_PERSON_ORGANIZATION ( #276, #231, #113 ) ;
#217 = MANIFOLD_SOLID_BREP ( 'Corps-Déplacer/Copier1[1]', #184 ) ;
#218 = EDGE_LOOP ( 'NONE', ( #302 ) ) ;
#219 = EDGE_CURVE ( 'NONE', #142, #142, #241, .T. ) ;
#220 = ORIENTED_EDGE ( 'NONE', *, *, #75, .T. ) ;
#221 = CARTESIAN_POINT ( 'NONE',  ( 8.728703347107827472E-16, -3.061616997868381785E-17, 0.2499999999999998335 ) ) ;
#222 = AXIS2_PLACEMENT_3D ( 'NONE', #13, #296, #85 ) ;
#223 = FACE_OUTER_BOUND ( 'NONE', #191, .T. ) ;
#224 = CARTESIAN_POINT ( 'NONE',  ( 0.0000000000000000000, 0.0000000000000000000, 0.0000000000000000000 ) ) ;
#225 = DIRECTION ( 'NONE',  ( 3.491481338843133355E-15, -1.224646799147353454E-16, 1.000000000000000000 ) ) ;
#226 = CIRCLE ( 'NONE', #132, 1.499999999999996003 ) ;
#227 = DIRECTION ( 'NONE',  ( -3.491481338843133355E-15, 1.224646799147353454E-16, -1.000000000000000000 ) ) ;
#228 = CARTESIAN_POINT ( 'NONE',  ( 3.491481338843133355E-14, 1.479999999999998650, 10.00000000000000000 ) ) ;
#229 = AXIS2_PLACEMENT_3D ( 'NONE', #175, #130, #237 ) ;
#230 = COORDINATED_UNIVERSAL_TIME_OFFSET ( 1, 0, .AHEAD. ) ;
#231 = APPROVAL ( #257, 'UNSPECIFIED' ) ;
#232 = PERSON_AND_ORGANIZATION ( #279, #288 ) ;
#233 = CARTESIAN_POINT ( 'NONE',  ( 0.0000000000000000000, 0.0000000000000000000, 0.0000000000000000000 ) ) ;
#234 = CIRCLE ( 'NONE', #46, 1.500000000000002887 ) ;
#235 = APPLICATION_PROTOCOL_DEFINITION ( 'international standard', 'config_control_design', 1994, #182 ) ;
#236 = APPLICATION_CONTEXT ( 'configuration controlled 3d designs of mechanical parts and assemblies' ) ;
#237 = DIRECTION ( 'NONE',  ( 4.275831445896959482E-31, 1.000000000000000000, 1.224646799147353454E-16 ) ) ;
#238 = COORDINATED_UNIVERSAL_TIME_OFFSET ( 1, 0, .AHEAD. ) ;
#239 = FACE_OUTER_BOUND ( 'NONE', #278, .T. ) ;
#240 = ADVANCED_FACE ( 'NONE', ( #269, #180 ), #84, .T. ) ;
#241 = CIRCLE ( 'NONE', #152, 1.274999999999998135 ) ;
#242 = CC_DESIGN_APPROVAL ( #69, ( #41 ) ) ;
#243 = DIRECTION ( 'NONE',  ( 4.275831445896959482E-31, 1.000000000000000000, 1.224646799147353454E-16 ) ) ;
#244 = DIRECTION ( 'NONE',  ( -3.903912049433589810E-31, -1.000000000000000000, -1.098853553194769027E-16 ) ) ;
#245 = CARTESIAN_POINT ( 'NONE',  ( 9.235322783731660292E-14, -3.239315175585918972E-15, 26.45101573646585891 ) ) ;
#246 = VERTEX_POINT ( 'NONE', #228 ) ;
#247 = CIRCLE ( 'NONE', #160, 1.274999999999999689 ) ;
#248 = CARTESIAN_POINT ( 'NONE',  ( 3.491481338843133355E-14, 1.109822239169773152E-32, 10.00000000000000000 ) ) ;
#249 = CARTESIAN_POINT ( 'NONE',  ( 2.129803616694311221E-13, 1.199999999999995515, 61.00000000000000000 ) ) ;
#250 = CARTESIAN_POINT ( 'NONE',  ( 9.235322783731660292E-14, -3.239315175585918972E-15, 26.45101573646585891 ) ) ;
#251 = PERSON_AND_ORGANIZATION_ROLE ( 'classification_officer' ) ;
#252 = ORIENTED_EDGE ( 'NONE', *, *, #9, .F. ) ;
#253 = APPROVAL_DATE_TIME ( #138, #231 ) ;
#254 = ADVANCED_FACE ( 'NONE', ( #266, #157 ), #284, .T. ) ;
#255 = AXIS2_PLACEMENT_3D ( 'NONE', #108, #14, #201 ) ;
#256 = ORIENTED_EDGE ( 'NONE', *, *, #171, .T. ) ;
#257 = APPROVAL_STATUS ( 'not_yet_approved' ) ;
#258 = ORIENTED_EDGE ( 'NONE', *, *, #189, .T. ) ;
#259 = PLANE ( 'NONE',  #229 ) ;
#260 = CC_DESIGN_APPROVAL ( #231, ( #61 ) ) ;
#261 = FACE_OUTER_BOUND ( 'NONE', #303, .T. ) ;
#262 = DIRECTION ( 'NONE',  ( 0.0000000000000000000, 1.000000000000000000, 0.0000000000000000000 ) ) ;
#263 = DIRECTION ( 'NONE',  ( 3.491481338843133355E-15, -1.224646799147353454E-16, 1.000000000000000000 ) ) ;
#264 = AXIS2_PLACEMENT_3D ( 'NONE', #53, #124, #8 ) ;
#265 = CARTESIAN_POINT ( 'NONE',  ( 3.491481338843133355E-14, 1.109822239169773152E-32, 10.00000000000000000 ) ) ;
#266 = FACE_OUTER_BOUND ( 'NONE', #72, .T. ) ;
#267 = VERTEX_POINT ( 'NONE', #58 ) ;
#268 = VERTEX_POINT ( 'NONE', #204 ) ;
#269 = FACE_BOUND ( 'NONE', #123, .T. ) ;
#270 = DIRECTION ( 'NONE',  ( 0.0000000000000000000, 1.000000000000000000, 0.0000000000000000000 ) ) ;
#271 = DATE_TIME_ROLE ( 'creation_date' ) ;
#272 = EDGE_LOOP ( 'NONE', ( #173 ) ) ;
#273 = APPROVAL_STATUS ( 'not_yet_approved' ) ;
#274 = EDGE_LOOP ( 'NONE', ( #98 ) ) ;
#275 = PERSON_AND_ORGANIZATION ( #279, #288 ) ;
#276 = PERSON_AND_ORGANIZATION ( #279, #288 ) ;
#277 = CC_DESIGN_PERSON_AND_ORGANIZATION_ASSIGNMENT ( #275, #145, ( #298 ) ) ;
#278 = EDGE_LOOP ( 'NONE', ( #24 ) ) ;
#279 = PERSON ( 'UNSPECIFIED', 'UNSPECIFIED', 'UNSPECIFIED', ('UNSPECIFIED'), ('UNSPECIFIED'), ('UNSPECIFIED') ) ;
#280 = DATE_AND_TIME ( #197, #161 ) ;
#281 = FACE_OUTER_BOUND ( 'NONE', #20, .T. ) ;
#282 = DIRECTION ( 'NONE',  ( 4.275831445896959482E-31, 1.000000000000000000, 1.224646799147353454E-16 ) ) ;
#283 = CIRCLE ( 'NONE', #155, 1.479999999999999982 ) ;
#284 = CONICAL_SURFACE ( 'NONE', #143, 1.200000000000002842, 0.7853981633974453924 ) ;
#285 = FACE_OUTER_BOUND ( 'NONE', #218, .T. ) ;
#286 = CARTESIAN_POINT ( 'NONE',  ( 8.728703347107833388E-14, -3.061616997868383831E-15, 25.00000000000000000 ) ) ;
#287 = DIRECTION ( 'NONE',  ( 4.275831445896959482E-31, 1.000000000000000000, 1.224646799147353454E-16 ) ) ;
#288 = ORGANIZATION ( 'UNSPECIFIED', 'UNSPECIFIED', '' ) ;
#289 = DIRECTION ( 'NONE',  ( -3.491481338843133355E-15, 1.224646799147353454E-16, -1.000000000000000000 ) ) ;
#290 = EDGE_CURVE ( 'NONE', #162, #162, #148, .T. ) ;
#291 = DIRECTION ( 'NONE',  ( 3.491481338843133355E-15, -1.224646799147353454E-16, 1.000000000000000000 ) ) ;
#292 = CARTESIAN_POINT ( 'NONE',  ( 9.235322783731660292E-14, 1.499999999999992673, 26.45101573646585891 ) ) ;
#293 = VERTEX_POINT ( 'NONE', #90 ) ;
#294 = AXIS2_PLACEMENT_3D ( 'NONE', #187, #15, #10 ) ;
#295 = LOCAL_TIME ( 8, 16, 37.00000000000000000, #1 ) ;
#296 = DIRECTION ( 'NONE',  ( 3.491481338843133355E-15, -1.224646799147353454E-16, 1.000000000000000000 ) ) ;
#297 = MECHANICAL_CONTEXT ( 'NONE', #236, 'mechanical' ) ;
#298 = PRODUCT ( '327116', '327116', '', ( #297 ) ) ;
#299 = PERSON_AND_ORGANIZATION_ROLE ( 'design_supplier' ) ;
#300 = EDGE_LOOP ( 'NONE', ( #117 ) ) ;
#301 = CIRCLE ( 'NONE', #66, 1.230000000000001537 ) ;
#302 = ORIENTED_EDGE ( 'NONE', *, *, #81, .T. ) ;
#303 = EDGE_LOOP ( 'NONE', ( #220 ) ) ;
ENDSEC;
END-ISO-10303-21;
