ISO-10303-21;
HEADER;
FILE_DESCRIPTION (( 'STEP AP203' ),
    '1' );
FILE_NAME ('327115.step',
    '2021-12-02T07:16:36',
    ( '' ),
    ( '' ),
    'SwSTEP 2.0',
    'SolidWorks 2019',
    '' );
FILE_SCHEMA (( 'CONFIG_CONTROL_DESIGN' ));
ENDSEC;

DATA;
#1 = EDGE_CURVE ( 'NONE', #128, #128, #197, .T. ) ;
#2 = PERSON_AND_ORGANIZATION_ROLE ( 'classification_officer' ) ;
#3 = AXIS2_PLACEMENT_3D ( 'NONE', #289, #14, #196 ) ;
#4 = CARTESIAN_POINT ( 'NONE',  ( 8.849961221477469775E-14, -3.104148534859897544E-15, 25.34729635533384595 ) ) ;
#5 = DIRECTION ( 'NONE',  ( 0.0000000000000000000, 1.000000000000000000, 0.0000000000000000000 ) ) ;
#6 = SECURITY_CLASSIFICATION ( '', '', #114 ) ;
#7 = EDGE_LOOP ( 'NONE', ( #20 ) ) ;
#8 = APPROVAL_ROLE ( '' ) ;
#9 = MANIFOLD_SOLID_BREP ( 'Corps-Déplacer/Copier1[1]', #36 ) ;
#10 = CC_DESIGN_PERSON_AND_ORGANIZATION_ASSIGNMENT ( #203, #254, ( #48 ) ) ;
#11 = CARTESIAN_POINT ( 'NONE',  ( 9.245223371051917463E-14, -3.242787834149647366E-15, 26.47937214556394281 ) ) ;
#12 = CC_DESIGN_APPROVAL ( #165, ( #273 ) ) ;
#13 = VERTEX_POINT ( 'NONE', #103 ) ;
#14 = DIRECTION ( 'NONE',  ( -3.491481338843133355E-15, 1.224646799147353454E-16, -1.000000000000000000 ) ) ;
#15 = FACE_OUTER_BOUND ( 'NONE', #45, .T. ) ;
#16 = CC_DESIGN_PERSON_AND_ORGANIZATION_ASSIGNMENT ( #111, #181, ( #273 ) ) ;
#17 = DIRECTION ( 'NONE',  ( -3.491481338843133355E-15, 1.224646799147353454E-16, -1.000000000000000000 ) ) ;
#18 = APPROVAL_DATE_TIME ( #139, #186 ) ;
#19 = CALENDAR_DATE ( 2021, 2, 12 ) ;
#20 = ORIENTED_EDGE ( 'NONE', *, *, #1, .T. ) ;
#21 = PERSON_AND_ORGANIZATION_ROLE ( 'design_owner' ) ;
#22 = AXIS2_PLACEMENT_3D ( 'NONE', #106, #149, #241 ) ;
#23 = ORIENTED_EDGE ( 'NONE', *, *, #1, .F. ) ;
#24 = EDGE_LOOP ( 'NONE', ( #143 ) ) ;
#25 = ORIENTED_EDGE ( 'NONE', *, *, #102, .T. ) ;
#26 = CONICAL_SURFACE ( 'NONE', #174, 1.499999999999996003, 0.1745329251994262587 ) ;
#27 = PLANE ( 'NONE',  #261 ) ;
#28 = DIRECTION ( 'NONE',  ( -3.491481338843133355E-15, 1.224646799147353454E-16, -1.000000000000000000 ) ) ;
#29 = AXIS2_PLACEMENT_3D ( 'NONE', #218, #81, #291 ) ;
#30 = DIRECTION ( 'NONE',  ( -4.275831445896959482E-31, -1.000000000000000000, -1.224646799147353454E-16 ) ) ;
#31 = DIRECTION ( 'NONE',  ( -4.275831445896959482E-31, -1.000000000000000000, -1.224646799147353454E-16 ) ) ;
#32 = FACE_OUTER_BOUND ( 'NONE', #253, .T. ) ;
#33 = FACE_OUTER_BOUND ( 'NONE', #94, .T. ) ;
#34 = CARTESIAN_POINT ( 'NONE',  ( 8.728703347107833388E-14, 1.269999999999996909, 25.00000000000000000 ) ) ;
#35 = VERTEX_POINT ( 'NONE', #78 ) ;
#36 = CLOSED_SHELL ( 'NONE', ( #49, #264, #220, #288, #245, #53, #237, #279 ) ) ;
#37 = DIRECTION ( 'NONE',  ( 0.0000000000000000000, 1.000000000000000000, 0.0000000000000000000 ) ) ;
#38 = ADVANCED_FACE ( 'NONE', ( #284, #96 ), #56, .T. ) ;
#39 = EDGE_LOOP ( 'NONE', ( #229 ) ) ;
#40 = COORDINATED_UNIVERSAL_TIME_OFFSET ( 1, 0, .AHEAD. ) ;
#41 = ORIENTED_EDGE ( 'NONE', *, *, #135, .T. ) ;
#42 = TOROIDAL_SURFACE ( 'NONE', #163, 3.270000000000000018, 2.000000000000000000 ) ;
#43 = VERTEX_POINT ( 'NONE', #303 ) ;
#44 = EDGE_CURVE ( 'NONE', #194, #194, #144, .T. ) ;
#45 = EDGE_LOOP ( 'NONE', ( #90 ) ) ;
#46 = CALENDAR_DATE ( 2021, 2, 12 ) ;
#47 = CARTESIAN_POINT ( 'NONE',  ( 3.491481338843133355E-14, -1.224646799147353454E-15, 10.00000000000000000 ) ) ;
#48 = PRODUCT_DEFINITION_FORMATION_WITH_SPECIFIED_SOURCE ( 'ANY', '', #249, .NOT_KNOWN. ) ;
#49 = ADVANCED_FACE ( 'NONE', ( #189 ), #259, .F. ) ;
#50 = CARTESIAN_POINT ( 'NONE',  ( 3.491481338843133355E-14, -1.224646799147353454E-15, 10.00000000000000000 ) ) ;
#51 = SHAPE_DEFINITION_REPRESENTATION ( #86, #167 ) ;
#52 = CARTESIAN_POINT ( 'NONE',  ( 3.491481338843133355E-14, 1.102323440256463809E-32, 10.00000000000000000 ) ) ;
#53 = ADVANCED_FACE ( 'NONE', ( #98, #234 ), #235, .T. ) ;
#54 = DIRECTION ( 'NONE',  ( -3.491481338843133355E-15, 1.224646799147353454E-16, -1.000000000000000000 ) ) ;
#55 = CIRCLE ( 'NONE', #22, 1.200000000000002842 ) ;
#56 = CYLINDRICAL_SURFACE ( 'NONE', #242, 1.469999999999999307 ) ;
#57 = CARTESIAN_POINT ( 'NONE',  ( 8.728703347107833388E-14, -3.035766082959412415E-15, 25.00000000000000000 ) ) ;
#58 = CARTESIAN_POINT ( 'NONE',  ( 2.129803616694311221E-13, 1.199999999999995515, 61.00000000000000000 ) ) ;
#59 = APPROVAL_PERSON_ORGANIZATION ( #301, #186, #222 ) ;
#60 = FACE_BOUND ( 'NONE', #24, .T. ) ;
#61 = CARTESIAN_POINT ( 'NONE',  ( 2.119329172677781757E-13, 1.499999999999995559, 60.69999999999999574 ) ) ;
#62 = FACE_OUTER_BOUND ( 'NONE', #206, .T. ) ;
#63 = CC_DESIGN_DATE_AND_TIME_ASSIGNMENT ( #159, #162, ( #273 ) ) ;
#64 = APPLICATION_PROTOCOL_DEFINITION ( 'international standard', 'config_control_design', 1994, #65 ) ;
#65 = APPLICATION_CONTEXT ( 'configuration controlled 3d designs of mechanical parts and assemblies' ) ;
#66 = EDGE_LOOP ( 'NONE', ( #225 ) ) ;
#67 = EDGE_LOOP ( 'NONE', ( #302 ) ) ;
#68 = EDGE_LOOP ( 'NONE', ( #137 ) ) ;
#69 = PERSON ( 'UNSPECIFIED', 'UNSPECIFIED', 'UNSPECIFIED', ('UNSPECIFIED'), ('UNSPECIFIED'), ('UNSPECIFIED') ) ;
#70 = DATE_AND_TIME ( #199, #271 ) ;
#71 = CARTESIAN_POINT ( 'NONE',  ( 8.728703347107827472E-16, -3.061616997868381785E-17, 0.2499999999999998335 ) ) ;
#72 = DIRECTION ( 'NONE',  ( 3.491481338843133355E-15, -1.224646799147353454E-16, 1.000000000000000000 ) ) ;
#73 = AXIS2_PLACEMENT_3D ( 'NONE', #95, #184, #280 ) ;
#74 = DIRECTION ( 'NONE',  ( -3.491481338843133355E-15, 1.224646799147353454E-16, -1.000000000000000000 ) ) ;
#75 = FACE_OUTER_BOUND ( 'NONE', #179, .T. ) ;
#76 = DIRECTION ( 'NONE',  ( -3.491481338843133355E-15, 1.224646799147353454E-16, -1.000000000000000000 ) ) ;
#77 = AXIS2_PLACEMENT_3D ( 'NONE', #292, #17, #265 ) ;
#78 = CARTESIAN_POINT ( 'NONE',  ( 3.491481338843133355E-14, 1.469999999999998641, 10.00000000000000000 ) ) ;
#79 = CARTESIAN_POINT ( 'NONE',  ( 1.892735826383161488E-30, 1.220000000000001528, 5.421010862427522170E-16 ) ) ;
#80 = PRODUCT_RELATED_PRODUCT_CATEGORY ( 'detail', '', ( #249 ) ) ;
#81 = DIRECTION ( 'NONE',  ( 3.491481338843133355E-15, -1.224646799147353454E-16, 1.000000000000000000 ) ) ;
#82 = AXIS2_PLACEMENT_3D ( 'NONE', #4, #54, #166 ) ;
#83 = DIRECTION ( 'NONE',  ( 0.0000000000000000000, 1.000000000000000000, 0.0000000000000000000 ) ) ;
#84 = FACE_OUTER_BOUND ( 'NONE', #140, .T. ) ;
#85 = DIRECTION ( 'NONE',  ( 0.0000000000000000000, 0.0000000000000000000, 1.000000000000000000 ) ) ;
#86 = PRODUCT_DEFINITION_SHAPE ( 'NONE', 'NONE',  #273 ) ;
#87 = APPROVAL_STATUS ( 'not_yet_approved' ) ;
#88 = ORIENTED_EDGE ( 'NONE', *, *, #240, .T. ) ;
#89 = ORIENTED_EDGE ( 'NONE', *, *, #44, .T. ) ;
#90 = ORIENTED_EDGE ( 'NONE', *, *, #231, .F. ) ;
#91 = UNCERTAINTY_MEASURE_WITH_UNIT (LENGTH_MEASURE( 1.000000000000000082E-05 ), #113, 'distance_accuracy_value', 'NONE');
#92 = COORDINATED_UNIVERSAL_TIME_OFFSET ( 1, 0, .AHEAD. ) ;
#93 = CIRCLE ( 'NONE', #217, 1.469999999999998641 ) ;
#94 = EDGE_LOOP ( 'NONE', ( #124 ) ) ;
#95 = CARTESIAN_POINT ( 'NONE',  ( 0.0000000000000000000, 0.0000000000000000000, 0.0000000000000000000 ) ) ;
#96 = FACE_OUTER_BOUND ( 'NONE', #238, .T. ) ;
#97 = CIRCLE ( 'NONE', #183, 1.469999999999999973 ) ;
#98 = FACE_OUTER_BOUND ( 'NONE', #39, .T. ) ;
#99 = DIRECTION ( 'NONE',  ( 0.0000000000000000000, 1.000000000000000000, 0.0000000000000000000 ) ) ;
#100 = DIRECTION ( 'NONE',  ( 0.0000000000000000000, -1.000000000000000000, 0.0000000000000000000 ) ) ;
#101 = APPROVAL_PERSON_ORGANIZATION ( #278, #165, #134 ) ;
#102 = EDGE_CURVE ( 'NONE', #126, #126, #93, .T. ) ;
#103 = CARTESIAN_POINT ( 'NONE',  ( 9.245223371051917463E-14, 1.499999999999992673, 26.47937214556394281 ) ) ;
#104 = MANIFOLD_SOLID_BREP ( 'Corps-Déplacer/Copier1[2]', #251 ) ;
#105 = PLANE ( 'NONE',  #77 ) ;
#106 = CARTESIAN_POINT ( 'NONE',  ( 2.129803616694311221E-13, -7.470345474798856659E-15, 61.00000000000000000 ) ) ;
#107 = ADVANCED_FACE ( 'NONE', ( #146 ), #27, .T. ) ;
#108 = AXIS2_PLACEMENT_3D ( 'NONE', #52, #72, #31 ) ;
#109 = DATE_AND_TIME ( #19, #300 ) ;
#110 = CIRCLE ( 'NONE', #155, 1.499999999999996003 ) ;
#111 = PERSON_AND_ORGANIZATION ( #69, #232 ) ;
#112 = CC_DESIGN_DATE_AND_TIME_ASSIGNMENT ( #109, #200, ( #6 ) ) ;
#113 =( LENGTH_UNIT ( ) NAMED_UNIT ( * ) SI_UNIT ( .MILLI., .METRE. ) );
#114 = SECURITY_CLASSIFICATION_LEVEL ( 'unclassified' ) ;
#115 = EDGE_LOOP ( 'NONE', ( #89 ) ) ;
#116 = EDGE_CURVE ( 'NONE', #35, #35, #257, .T. ) ;
#117 = CONICAL_SURFACE ( 'NONE', #3, 1.200000000000002842, 0.7853981633974453924 ) ;
#118 = ORIENTED_EDGE ( 'NONE', *, *, #157, .T. ) ;
#119 = DIRECTION ( 'NONE',  ( 3.491481338843133355E-15, -1.224646799147353454E-16, 1.000000000000000000 ) ) ;
#120 = APPROVAL_DATE_TIME ( #190, #125 ) ;
#121 = CARTESIAN_POINT ( 'NONE',  ( 8.728703347107833388E-14, -3.061616997868383831E-15, 25.00000000000000000 ) ) ;
#122 = CC_DESIGN_SECURITY_CLASSIFICATION ( #6, ( #48 ) ) ;
#123 = DIRECTION ( 'NONE',  ( 3.491481338843133355E-15, -1.224646799147353454E-16, 1.000000000000000000 ) ) ;
#124 = ORIENTED_EDGE ( 'NONE', *, *, #195, .T. ) ;
#125 = APPROVAL ( #87, 'UNSPECIFIED' ) ;
#126 = VERTEX_POINT ( 'NONE', #151 ) ;
#127 = AXIS2_PLACEMENT_3D ( 'NONE', #50, #74, #214 ) ;
#128 = VERTEX_POINT ( 'NONE', #295 ) ;
#129 = VERTEX_POINT ( 'NONE', #61 ) ;
#130 = CARTESIAN_POINT ( 'NONE',  ( 3.612429800294234159E-14, -1.267069808696350687E-15, 10.34641016151378423 ) ) ;
#131 = CONICAL_SURFACE ( 'NONE', #201, 1.469999999999998641, 0.7853981633974437271 ) ;
#132 = APPLICATION_CONTEXT ( 'configuration controlled 3d designs of mechanical parts and assemblies' ) ;
#133 = APPROVAL_STATUS ( 'not_yet_approved' ) ;
#134 = APPROVAL_ROLE ( '' ) ;
#135 = EDGE_CURVE ( 'NONE', #243, #243, #97, .T. ) ;
#136 = APPROVAL_DATE_TIME ( #70, #165 ) ;
#137 = ORIENTED_EDGE ( 'NONE', *, *, #169, .T. ) ;
#138 = CC_DESIGN_APPROVAL ( #186, ( #48 ) ) ;
#139 = DATE_AND_TIME ( #247, #226 ) ;
#140 = EDGE_LOOP ( 'NONE', ( #223 ) ) ;
#141 = PERSON_AND_ORGANIZATION ( #69, #232 ) ;
#142 = ADVANCED_FACE ( 'NONE', ( #260, #75 ), #131, .T. ) ;
#143 = ORIENTED_EDGE ( 'NONE', *, *, #231, .T. ) ;
#144 = CIRCLE ( 'NONE', #293, 1.269999999999999796 ) ;
#145 = CARTESIAN_POINT ( 'NONE',  ( 3.491481338843133355E-14, 1.102323440256463809E-32, 10.00000000000000000 ) ) ;
#146 = FACE_OUTER_BOUND ( 'NONE', #298, .T. ) ;
#147 = CIRCLE ( 'NONE', #276, 1.220000000000001528 ) ;
#148 = DIRECTION ( 'NONE',  ( 4.275831445896959482E-31, 1.000000000000000000, 1.224646799147353454E-16 ) ) ;
#149 = DIRECTION ( 'NONE',  ( -3.491481338843133355E-15, 1.224646799147353454E-16, -1.000000000000000000 ) ) ;
#150 = AXIS2_PLACEMENT_3D ( 'NONE', #130, #263, #83 ) ;
#151 = CARTESIAN_POINT ( 'NONE',  ( 8.728703347107833388E-16, 1.469999999999998641, 0.2500000000000000000 ) ) ;
#152 = CC_DESIGN_PERSON_AND_ORGANIZATION_ASSIGNMENT ( #141, #296, ( #48 ) ) ;
#153 = DIRECTION ( 'NONE',  ( -3.491481338843133355E-15, 1.224646799147353454E-16, -1.000000000000000000 ) ) ;
#154 = FACE_OUTER_BOUND ( 'NONE', #115, .T. ) ;
#155 = AXIS2_PLACEMENT_3D ( 'NONE', #215, #76, #211 ) ;
#156 = ORIENTED_EDGE ( 'NONE', *, *, #135, .F. ) ;
#157 = EDGE_CURVE ( 'NONE', #13, #13, #110, .T. ) ;
#158 =( NAMED_UNIT ( * ) PLANE_ANGLE_UNIT ( ) SI_UNIT ( $, .RADIAN. ) );
#159 = DATE_AND_TIME ( #202, #180 ) ;
#160 = AXIS2_PLACEMENT_3D ( 'NONE', #185, #164, #99 ) ;
#161 = APPLICATION_PROTOCOL_DEFINITION ( 'international standard', 'config_control_design', 1994, #132 ) ;
#162 = DATE_TIME_ROLE ( 'creation_date' ) ;
#163 = AXIS2_PLACEMENT_3D ( 'NONE', #57, #239, #148 ) ;
#164 = DIRECTION ( 'NONE',  ( -3.491481338843133355E-15, 1.224646799147353454E-16, -1.000000000000000000 ) ) ;
#165 = APPROVAL ( #221, 'UNSPECIFIED' ) ;
#166 = DIRECTION ( 'NONE',  ( 0.0000000000000000000, 1.000000000000000000, 0.0000000000000000000 ) ) ;
#167 = ADVANCED_BREP_SHAPE_REPRESENTATION ( '327115', ( #9, #104, #192 ), #287 ) ;
#168 = DIRECTION ( 'NONE',  ( -3.491481338843133355E-15, 1.224646799147353454E-16, -1.000000000000000000 ) ) ;
#169 = EDGE_CURVE ( 'NONE', #129, #129, #213, .T. ) ;
#170 = CARTESIAN_POINT ( 'NONE',  ( 8.728703347107827472E-16, -3.061616997868381785E-17, 0.2499999999999998335 ) ) ;
#171 = CARTESIAN_POINT ( 'NONE',  ( 0.0000000000000000000, 0.0000000000000000000, 0.0000000000000000000 ) ) ;
#172 = VERTEX_POINT ( 'NONE', #58 ) ;
#173 = FACE_OUTER_BOUND ( 'NONE', #209, .T. ) ;
#174 = AXIS2_PLACEMENT_3D ( 'NONE', #11, #193, #100 ) ;
#175 = CARTESIAN_POINT ( 'NONE',  ( 3.612429800294234159E-14, -1.267069808696350687E-15, 10.34641016151378423 ) ) ;
#176 = FACE_OUTER_BOUND ( 'NONE', #66, .T. ) ;
#177 = PERSON_AND_ORGANIZATION ( #69, #232 ) ;
#178 = CC_DESIGN_PERSON_AND_ORGANIZATION_ASSIGNMENT ( #177, #2, ( #6 ) ) ;
#179 = EDGE_LOOP ( 'NONE', ( #25 ) ) ;
#180 = LOCAL_TIME ( 8, 16, 36.00000000000000000, #252 ) ;
#181 = PERSON_AND_ORGANIZATION_ROLE ( 'creator' ) ;
#182 =( NAMED_UNIT ( * ) SI_UNIT ( $, .STERADIAN. ) SOLID_ANGLE_UNIT ( ) );
#183 = AXIS2_PLACEMENT_3D ( 'NONE', #47, #168, #212 ) ;
#184 = DIRECTION ( 'NONE',  ( -3.491481338843133355E-15, 1.224646799147353454E-16, -1.000000000000000000 ) ) ;
#185 = CARTESIAN_POINT ( 'NONE',  ( 2.119329172677781757E-13, -7.433606070824434221E-15, 60.69999999999999574 ) ) ;
#186 = APPROVAL ( #133, 'UNSPECIFIED' ) ;
#187 = DIRECTION ( 'NONE',  ( -3.491481338843133355E-15, 1.224646799147353454E-16, -1.000000000000000000 ) ) ;
#188 = CC_DESIGN_APPROVAL ( #125, ( #6 ) ) ;
#189 = FACE_OUTER_BOUND ( 'NONE', #255, .T. ) ;
#190 = DATE_AND_TIME ( #46, #208 ) ;
#191 = DIRECTION ( 'NONE',  ( -3.491481338843133355E-15, 1.224646799147353454E-16, -1.000000000000000000 ) ) ;
#192 = AXIS2_PLACEMENT_3D ( 'NONE', #224, #85, #205 ) ;
#193 = DIRECTION ( 'NONE',  ( 3.491481338843133355E-15, -1.224646799147353454E-16, 1.000000000000000000 ) ) ;
#194 = VERTEX_POINT ( 'NONE', #34 ) ;
#195 = EDGE_CURVE ( 'NONE', #290, #290, #147, .T. ) ;
#196 = DIRECTION ( 'NONE',  ( 0.0000000000000000000, 1.000000000000000000, 0.0000000000000000000 ) ) ;
#197 = CIRCLE ( 'NONE', #82, 1.300384493975581313 ) ;
#198 = CYLINDRICAL_SURFACE ( 'NONE', #267, 1.269999999999998908 ) ;
#199 = CALENDAR_DATE ( 2021, 2, 12 ) ;
#200 = DATE_TIME_ROLE ( 'classification_date' ) ;
#201 = AXIS2_PLACEMENT_3D ( 'NONE', #170, #119, #233 ) ;
#202 = CALENDAR_DATE ( 2021, 2, 12 ) ;
#203 = PERSON_AND_ORGANIZATION ( #69, #232 ) ;
#204 = ORIENTED_EDGE ( 'NONE', *, *, #116, .F. ) ;
#205 = DIRECTION ( 'NONE',  ( 1.000000000000000000, 0.0000000000000000000, 0.0000000000000000000 ) ) ;
#206 = EDGE_LOOP ( 'NONE', ( #118 ) ) ;
#207 = CIRCLE ( 'NONE', #299, 1.269999999999998241 ) ;
#208 = LOCAL_TIME ( 8, 16, 36.00000000000000000, #283 ) ;
#209 = EDGE_LOOP ( 'NONE', ( #275 ) ) ;
#210 = ADVANCED_FACE ( 'NONE', ( #33 ), #246, .F. ) ;
#211 = DIRECTION ( 'NONE',  ( 0.0000000000000000000, 1.000000000000000000, 0.0000000000000000000 ) ) ;
#212 = DIRECTION ( 'NONE',  ( 0.0000000000000000000, 1.000000000000000000, 0.0000000000000000000 ) ) ;
#213 = CIRCLE ( 'NONE', #160, 1.500000000000002887 ) ;
#214 = DIRECTION ( 'NONE',  ( 0.0000000000000000000, 1.000000000000000000, 0.0000000000000000000 ) ) ;
#215 = CARTESIAN_POINT ( 'NONE',  ( 9.245223371051917463E-14, -3.242787834149647366E-15, 26.47937214556394281 ) ) ;
#216 = CARTESIAN_POINT ( 'NONE',  ( 3.491481338843133355E-14, 1.469999999999998641, 10.00000000000000000 ) ) ;
#217 = AXIS2_PLACEMENT_3D ( 'NONE', #71, #28, #285 ) ;
#218 = CARTESIAN_POINT ( 'NONE',  ( 6.855421949918659168E-31, -2.404558332983714770E-32, 1.963470883733874571E-16 ) ) ;
#219 = DIRECTION ( 'NONE',  ( -3.491481338843133355E-15, 1.224646799147353454E-16, -1.000000000000000000 ) ) ;
#220 = ADVANCED_FACE ( 'NONE', ( #173, #154 ), #198, .T. ) ;
#221 = APPROVAL_STATUS ( 'not_yet_approved' ) ;
#222 = APPROVAL_ROLE ( '' ) ;
#223 = ORIENTED_EDGE ( 'NONE', *, *, #169, .F. ) ;
#224 = CARTESIAN_POINT ( 'NONE',  ( 0.0000000000000000000, 0.0000000000000000000, 0.0000000000000000000 ) ) ;
#225 = ORIENTED_EDGE ( 'NONE', *, *, #44, .F. ) ;
#226 = LOCAL_TIME ( 8, 16, 36.00000000000000000, #40 ) ;
#227 = PERSON_AND_ORGANIZATION ( #69, #232 ) ;
#228 = EDGE_LOOP ( 'NONE', ( #88 ) ) ;
#229 = ORIENTED_EDGE ( 'NONE', *, *, #157, .F. ) ;
#230 = ORIENTED_EDGE ( 'NONE', *, *, #116, .T. ) ;
#231 = EDGE_CURVE ( 'NONE', #172, #172, #55, .T. ) ;
#232 = ORGANIZATION ( 'UNSPECIFIED', 'UNSPECIFIED', '' ) ;
#233 = DIRECTION ( 'NONE',  ( -3.930469274259668590E-31, -1.000000000000000000, -1.106328747434189207E-16 ) ) ;
#234 = FACE_OUTER_BOUND ( 'NONE', #68, .T. ) ;
#235 = CYLINDRICAL_SURFACE ( 'NONE', #73, 1.499999999999999334 ) ;
#236 = CARTESIAN_POINT ( 'NONE',  ( 0.0000000000000000000, 0.0000000000000000000, 0.0000000000000000000 ) ) ;
#237 = ADVANCED_FACE ( 'NONE', ( #84, #60 ), #117, .T. ) ;
#238 = EDGE_LOOP ( 'NONE', ( #230 ) ) ;
#239 = DIRECTION ( 'NONE',  ( -3.491481338843133355E-15, 1.224646799147353454E-16, -1.000000000000000000 ) ) ;
#240 = EDGE_CURVE ( 'NONE', #43, #43, #207, .T. ) ;
#241 = DIRECTION ( 'NONE',  ( 0.0000000000000000000, 1.000000000000000000, 0.0000000000000000000 ) ) ;
#242 = AXIS2_PLACEMENT_3D ( 'NONE', #236, #187, #262 ) ;
#243 = VERTEX_POINT ( 'NONE', #216 ) ;
#244 = DIRECTION ( 'NONE',  ( 4.275831445896959482E-31, 1.000000000000000000, 1.224646799147353454E-16 ) ) ;
#245 = ADVANCED_FACE ( 'NONE', ( #270, #62 ), #26, .T. ) ;
#246 = PLANE ( 'NONE',  #29 ) ;
#247 = CALENDAR_DATE ( 2021, 2, 12 ) ;
#248 = EDGE_LOOP ( 'NONE', ( #23 ) ) ;
#249 = PRODUCT ( '327115', '327115', '', ( #274 ) ) ;
#250 = ORIENTED_EDGE ( 'NONE', *, *, #195, .F. ) ;
#251 = CLOSED_SHELL ( 'NONE', ( #210, #142, #38, #107 ) ) ;
#252 = COORDINATED_UNIVERSAL_TIME_OFFSET ( 1, 0, .AHEAD. ) ;
#253 = EDGE_LOOP ( 'NONE', ( #156 ) ) ;
#254 = PERSON_AND_ORGANIZATION_ROLE ( 'creator' ) ;
#255 = EDGE_LOOP ( 'NONE', ( #41 ) ) ;
#256 = EDGE_LOOP ( 'NONE', ( #250 ) ) ;
#257 = CIRCLE ( 'NONE', #127, 1.469999999999999973 ) ;
#258 = CARTESIAN_POINT ( 'NONE',  ( 1.371084389983731834E-30, -4.809116665967429540E-32, 3.926941767467749142E-16 ) ) ;
#259 = PLANE ( 'NONE',  #108 ) ;
#260 = FACE_BOUND ( 'NONE', #256, .T. ) ;
#261 = AXIS2_PLACEMENT_3D ( 'NONE', #145, #123, #30 ) ;
#262 = DIRECTION ( 'NONE',  ( 4.275831445896959482E-31, 1.000000000000000000, 1.224646799147353454E-16 ) ) ;
#263 = DIRECTION ( 'NONE',  ( -3.491481338843133355E-15, 1.224646799147353454E-16, -1.000000000000000000 ) ) ;
#264 = ADVANCED_FACE ( 'NONE', ( #32, #266 ), #282, .T. ) ;
#265 = DIRECTION ( 'NONE',  ( 4.275831445896959482E-31, 1.000000000000000000, 1.224646799147353454E-16 ) ) ;
#266 = FACE_BOUND ( 'NONE', #228, .T. ) ;
#267 = AXIS2_PLACEMENT_3D ( 'NONE', #171, #153, #244 ) ;
#268 = CC_DESIGN_PERSON_AND_ORGANIZATION_ASSIGNMENT ( #227, #21, ( #249 ) ) ;
#269 = FACE_OUTER_BOUND ( 'NONE', #7, .T. ) ;
#270 = FACE_BOUND ( 'NONE', #248, .T. ) ;
#271 = LOCAL_TIME ( 8, 16, 36.00000000000000000, #272 ) ;
#272 = COORDINATED_UNIVERSAL_TIME_OFFSET ( 1, 0, .AHEAD. ) ;
#273 = PRODUCT_DEFINITION ( 'UNKNOWN', '', #48, #277 ) ;
#274 = MECHANICAL_CONTEXT ( 'NONE', #65, 'mechanical' ) ;
#275 = ORIENTED_EDGE ( 'NONE', *, *, #240, .F. ) ;
#276 = AXIS2_PLACEMENT_3D ( 'NONE', #258, #191, #286 ) ;
#277 = DESIGN_CONTEXT ( 'detailed design', #132, 'design' ) ;
#278 = PERSON_AND_ORGANIZATION ( #69, #232 ) ;
#279 = ADVANCED_FACE ( 'NONE', ( #15 ), #105, .F. ) ;
#280 = DIRECTION ( 'NONE',  ( 4.275831445896960358E-31, 1.000000000000000000, 1.224646799147353454E-16 ) ) ;
#281 = DIRECTION ( 'NONE',  ( -3.491481338843133355E-15, 1.224646799147353454E-16, -1.000000000000000000 ) ) ;
#282 = CONICAL_SURFACE ( 'NONE', #150, 1.269999999999998241, 0.5235987755982924874 ) ;
#283 = COORDINATED_UNIVERSAL_TIME_OFFSET ( 1, 0, .AHEAD. ) ;
#284 = FACE_OUTER_BOUND ( 'NONE', #67, .T. ) ;
#285 = DIRECTION ( 'NONE',  ( 3.930469274259668590E-31, 1.000000000000000000, 1.106328747434189207E-16 ) ) ;
#286 = DIRECTION ( 'NONE',  ( 4.275831445896958607E-31, 1.000000000000000000, 1.224646799147353454E-16 ) ) ;
#287 =( GEOMETRIC_REPRESENTATION_CONTEXT ( 3 ) GLOBAL_UNCERTAINTY_ASSIGNED_CONTEXT ( ( #91 ) ) GLOBAL_UNIT_ASSIGNED_CONTEXT ( ( #113, #158, #182 ) ) REPRESENTATION_CONTEXT ( 'NONE', 'WORKASPACE' ) );
#288 = ADVANCED_FACE ( 'NONE', ( #176, #269 ), #42, .F. ) ;
#289 = CARTESIAN_POINT ( 'NONE',  ( 2.129803616694311221E-13, -7.470345474798856659E-15, 61.00000000000000000 ) ) ;
#290 = VERTEX_POINT ( 'NONE', #79 ) ;
#291 = DIRECTION ( 'NONE',  ( -4.275831445896959482E-31, -1.000000000000000000, -1.224646799147353454E-16 ) ) ;
#292 = CARTESIAN_POINT ( 'NONE',  ( 2.129803616694311221E-13, 8.998558695971062171E-33, 61.00000000000000000 ) ) ;
#293 = AXIS2_PLACEMENT_3D ( 'NONE', #121, #281, #5 ) ;
#294 = APPROVAL_PERSON_ORGANIZATION ( #297, #125, #8 ) ;
#295 = CARTESIAN_POINT ( 'NONE',  ( 8.849961221477469775E-14, 1.300384493975578204, 25.34729635533384595 ) ) ;
#296 = PERSON_AND_ORGANIZATION_ROLE ( 'design_supplier' ) ;
#297 = PERSON_AND_ORGANIZATION ( #69, #232 ) ;
#298 = EDGE_LOOP ( 'NONE', ( #204 ) ) ;
#299 = AXIS2_PLACEMENT_3D ( 'NONE', #175, #219, #37 ) ;
#300 = LOCAL_TIME ( 8, 16, 36.00000000000000000, #92 ) ;
#301 = PERSON_AND_ORGANIZATION ( #69, #232 ) ;
#302 = ORIENTED_EDGE ( 'NONE', *, *, #102, .F. ) ;
#303 = CARTESIAN_POINT ( 'NONE',  ( 3.612429800294234159E-14, 1.269999999999997131, 10.34641016151378423 ) ) ;
ENDSEC;
END-ISO-10303-21;
